Kutless - It Came Upon A Midnight Clear tab

-------------------------------------------------------------------------------
                   It Came Upon a Midnight Clesr- Kutless
-------------------------------------------------------------------------------
Tabbed by:MatthewK	
Email:mathiask28@gmail.com

Tuning:One-Half Step Down-Eb Ab Db Gb Bb eb

INTRO:
e|-0---0--------0-----0---0--------0----------0-----0----0---0-----0---------|
B|-1-----1--------1---0-----0--------0--0h1-----1-----1--0-----0-----0-------|
G|-2-2------2-2-------2-2------2-2------2---2-----2------2-2-----2-----------|
D|-2-2------2-2-------2-2------2-2----------2-----2------2-2-----2-----------|
A|-0-0------0-0-------0-0------0-0----------0-----0------0-0-----0-----------|
E|---------------------------------------------------------------------------|

VERSES(all verses are the same):
Am  Fmaj7/C  Am   E
Am  Fmaj7/C  F G  Am

CHORUS:
      E               Am    C
Peace on the earth good will to men
       Dm                   G
From heaven's all-gracious king
     Am          Fmaj7/C        F       G    Am
The World in solemn stillness lay to hear the angels sing

Guitar plays the intro for this part: Ahh-ahh-ahhhhh   ahh-ahh-ahhhhh

+++++++++++++++++++++++++++++++++++++++++++++++++++++++++++++++++++++++++++++++++++

I believe this is a mandolin solo, but I've tabbed it out for guitar.
(some guitars {especially acoustics} don't have 24 frets, so the notes in parentheses 
are the exact same as the notes above it, just 1 octave lower)

e|-17----19----20---19-20-24--17--16---17--19---20---24-22-20-22-20--19-15-17--|
B|----17----17---------------------------17--17-----(17-15-13-15-13--12--8-10)-|
G|-----------------------------------------------------------------------------|
D|-----------------------------------------------------------------------------|
A|-----------------------------------------------------------------------------|
E|-----------------------------------------------------------------------------|

Now the guitar solo: 

e|---------------------------------------------------------------------------|
B|------------------------------------------12-------------------------------|
G|-9-9------------------9-7--------------12---------9---7--------------------|
D|-----------6-7--9-10------10-9-7-9-10---------9h10--9---10-7-----7---------|
A|-----7-7-9---------------------------------------------------10----10------|
E|---------------------------------------------------------------------------|

e|---------------------------------------------------------------------------|
B|---------------------------------------------------------------------------|
G|------------------------------------------------------9---12h14-14---------|
D|----7--7-9h10p9------9--------------------------10h12----------------------|
A|-10-------------10-7-------------5/7-10-7-10/12----------------------------|
E|---------------------------------------------------------------------------|

That's my first tab-That's it! The solo is really neat and sounds good if you can add in the 
grace notes, slides, and vibratos that they did.
Comment and email me at mathiask28@gmail.com! Also if you would like to request a tab, you 
can email me about that as well. Thanks much.
                   


************************************

| /   slide up
| \   slide down
| h   hammer-on
| p   pull-off
| ~   vibrato
| +   harmonic
| x   Mute note
| b   Bend
| pb  Pre-bend
| br  Bend release
| pbr Pre-bend release
| brb Bend release bend

************************************
Tap to rate this tab
 
# A B C D E F G H I J K L M N O P Q R S T U V W X Y Z