Song name
# A B C D E F G H I J K L M N O P Q R S T U V W X Y Z

Lacuna Coil - Spellbound tab

Key:
p = Pull off
~ = Let Ring
\ = Slide Down
* = Natural Harmonic


Drop D Tuning


Intro

E|-----7-7--------7-7---------7-7-|
A|-8p7----8p7-8p7-----8p7-8p7-----|
D|--------------------------------| x4
G|--------------------------------|
B|--------------------------------|
E|--------------------------------|

Pre verse/Chorus

E|-7------3------0-----------------------|
A|-7 x16--3 x16--0 x16--3-----x-x--5-----|
D|-7------3------0------5 x8--x-x--7 x8--|
G|----------------------5-----x-x--7-----| x2
B|---------------------------------------|
E|---------------------------------------|

I dont think there actually is any guitars playing in the verse, but this is what i do.


Verse 1

E|-7-7-7-7--7~-|                         E|-7-7-7-7--3~-|
A|-7-7-7-7--7~-|                         A|-7-7-7-7--3~-|
D|-7-7-7-7--7~-| 3rd and 6th time I go   D|-7-7-7-7--3~-|
G|-------------|                         G|-------------|
B|-------------|                         B|-------------|
E|-------------|                         E|-------------|

E|-----------|  "A mourn Day"
A|-3~-2~-----|
D|-5~-4~-----|
G|-5~-4~-----|
B|-----------|
E|-----------|


Chorus

E|-7------3------0-----------------------|
A|-7 x16--3 x16--0 x16--3-----x-x--5-----|
D|-7------3------0------5 x8--x-x--7 x8--| x2
G|----------------------5-----x-x--7-----|
B|---------------------------------------|
E|---------------------------------------|


Pre verse

E|-----7-7--------7-7---------7-7-|
A|-7p5----7p5-7p5-----7p5-7p5-----|
D|--------------------------------| x4
G|--------------------------------|
B|--------------------------------|
E|--------------------------------|


Verse 2

E|-7-7-7-7--7~-|                         E|-7-7-7-7--3~-|
A|-7-7-7-7--7~-|                         A|-7-7-7-7--3~-|
D|-7-7-7-7--7~-| 3rd and 6th time I go   D|-7-7-7-7--3~-|
G|-------------|                         G|-------------|
B|-------------|                         B|-------------|
E|-------------|                         E|-------------|


E|-----------|  "A mourn Day"
A|-3~-2~-----|
D|-5~-4~-----|
G|-5~-4~-----|
B|-----------|
E|-----------|
Chorus

E|-7------3------0-----------------------|
A|-7 x16--3 x16--0 x16--3-----x-x--5-----|
D|-7------3------0------5 x8--x-x--7 x8--| x2
G|----------------------5-----x-x--7-----|
B|---------------------------------------|
E|---------------------------------------|

Pre Solo

E|-----7-7--------7-7---------7-7-|
A|-8p7----8p7-8p7-----8p7-8p7-----|
D|--------------------------------| x4
G|--------------------------------|
B|--------------------------------|
E|--------------------------------|


Solo - Now, there are two ways to play this solo, one way by using octaves and the other 
single note tremelo picking, im going to TAB the single note picking, because from 
you should be able to work out the octave way of doing it.

E|-----------------------------------------------------------------|
A|-----------------------------------------------------------------|
D|-----------------------------------------------------------------|
G|-14 x15-\9 x15--19-19-19-17-17-17-21-21-21-19-19-19-22-22-21-21--|
B|-----------------------------------------------------------------|
E|-----------------------------------------------------------------|

This part requires slide harmonics. Harmonic on the 6th fret of the G string and slide 
on the fret board, whilst lightly touching the string.

E|--------|
A|--------|
D|--------|
G|-6*\2*--|
B|--------|
E|--------|

E|----------------------------------------------------------------------|
A|----------------------------------------------------------------------|
D|----------------------------------------------------------------------|
G|-14-14-14-14-14-14-14-14-16-16-16-16-17-17-17-21-21-21-21-21-21-21-21-|
B|----------------------------------------------------------------------|
E|----------------------------------------------------------------------|

E|------------------------------------------|
A|------------------------------------------|
D|------------------------------------------|
G|----21-21----21-21----21-21-----21-21-----|
B|-22-------20-------22--------20-------22--|
E|------------------------------------------|

E|-------------17\----|
A|-------------17\----|
D|-------------17\----|
G|-20p22--------------|
B|-------21-----------|
E|--------------------|

End of Solo


Chorus

First time play this

E|-7------3------0-----------------------|
A|-7 x16--3 x16--0 x16--3-----x-x--5-----|
D|-7------3------0------5 x8--x-x--7 x8--|
G|----------------------5-----x-x--7-----|
B|---------------------------------------|
E|---------------------------------------|

Second Time play this

E|-7------3------0------2----------------|
A|-7 x16--3 x16--0 x24--2 x8-------------|
D|-7------3------0------2----------------|
G|---------------------------------------|
B|---------------------------------------|
E|---------------------------------------|

E|-7------3------0-----------------------|
A|-7 x16--3 x16--0 x16--3-----x-x--5-----|
D|-7------3------0------5 x8--x-x--7 x8--| x2
G|----------------------5-----x-x--7-----|
B|---------------------------------------|
E|---------------------------------------|

E|-7-7-7-7\-|
A|-7-7-7-7\-|
D|-7-7-7-7\-|
G|----------|
B|----------|
E|----------|
Tap to rate this tab
 
# A B C D E F G H I J K L M N O P Q R S T U V W X Y Z