Song name
# A B C D E F G H I J K L M N O P Q R S T U V W X Y Z

Lady Lamb The Beekeeper - Rooftop tab

Standard tuning


Intro:
e|---------------------------------------------------------------------------|
B|---------------------------------------------------------------------------|
G|---------------------------------------------------------------------------|  x3
D|----8---8----9----9---4---4---4---4----------------------------------------|
A|--9---9---10---10---5---5---5---5------------------------------------------|
E|---------------------------------------------------------------------------|

e|---------------------------------------------------------------------------|
B|---------------------------------------------------------------------------|
G|---------------------------------------------------------------------------|
D|----8---8----11----11---4---4---4---4--------------------------------------|
A|--9---9---12----12----5---5---5---5----------------------------------------|
E|---------------------------------------------------------------------------|

Verse:
e|---------------------------------------------------------------------------|
B|---------------------------------------------------------------------------|
G|---------------------------------------------------------------------------|
D|----8---8----9----9---4---4---4---4---8---8----11----11---4---4---4---4----|
A|--9---9---10---10---5---5---5---5---9---9---12----12----5---5---5---5------|
E|---------------------------------------------------------------------------|

e|---------------------------------------------------------------------------|
B|---------------------------------------------------------------------------|
G|---------------------------------------------------------------------------|
D|--------------------4---4---4---4---8---8----11----11---4---4--------------|
A|----2---2---4---4-5---5---5---5---9---9---12----12----5---5---5------------|
E|--3---3---5---5------------------------------------------------------------|

Interlude:
e|---------------------------------------------------------------------------|
B|---------------------------------------------------------------------------|
G|---------------------------------------------------------------------------|  x3
D|----4/8---8-8/9----9------4---4---4---4------------------------------------|
A|--5-----9-------10---10-5---5---5---5--------------------------------------|
E|---------------------------------------------------------------------------|

e|---------------------------------------------------------------------------|
B|---------------------------------------------------------------------------|
G|---------------------------------------------------------------------------|
D|----8---8----11----11---4---4---4---4--------------------------------------|
A|--9---9---12----12----5---5---5---5----------------------------------------|
E|---------------------------------------------------------------------------|

Refrain:
A

Chorus:
G A D

Repeat the sequence a second time and then play chorus chords until the end of song.
Tap to rate this tab
 
# A B C D E F G H I J K L M N O P Q R S T U V W X Y Z