Guitaretab - guitar tabs
Song name
# A B C D E F G H I J K L M N O P Q R S T U V W X Y Z

Ladyhawke - Love Dont Live Here Anymore tab

relativly simple..

|-------------------------------------|
|-------------------------------------|
|-4-4-4-4--7-7--2-2--4-4-4-4--7-7-2-2-|
|-4-4-4-4--7-7--2-2--4-4-4-4--7-7-2-2-|
|-2-2-2-2--5-5--0-0--2-2-2-2--5-5-0-0-|
|-------------------------------------|
[ Tab from: http://www.guitaretab.com/l/ladyhawke/174905.html ]
based around that for the majority

bridge bit, play an octave up second time

|------------------------------------|
|------------------------------------|
|-4-4-4-4-6-6-6-6-7-7-7-7-9-9-9-9----|
|-x-x-x-x-x-x-x-x-x-x-x-x-x-x-x-x----|
|-2-2-2-2-4-4-4-4-5-5-5-5-7-7-7-7----|
|------------------------------------|
Related for Love Dont Live Here Anymore tab