Song name
# A B C D E F G H I J K L M N O P Q R S T U V W X Y Z

Lagwagon - Trashed Album tab

Help us improve GuitareTab! Take a short survey!
From: Miikka Lattu 

   So here's a (almost) complete transcription of Lag Wagon's "Trashed".
 I just had a dull New Year,  so I thought that maybe I should use it for
 something useful. Well, instead of that I decided to transcribe Trashed,
 which I have intended a while. If you try to learn the tunes, the record=
=20
 itself is _highly_ recommanded.
   As everyone knows (?) Lag Wagon has two guitars, so it's not _that_
 easy to just transcript the tunes; I've maid some kind of compromisses,
 that are "wrong", but sound "real".
   The solo in "Stokin' the neighbours" isn't here. I thought that if some=
=20
 one is technically skilled enough to play it (not me!), I'm sure he is not
 downloading tablatures and trying to learn Lag Wagon.
   I take no responsibilities for how correct the tunes are, so don't claim=
=20
 that you know them all, 'cause there are lot of errors in here.


                                             Cybelius / Orange
                                             cybelius@freenet.hut.fi
                                             Johannes Tiusanen

=20
 =B0=B0=B0=B0=B0=B0=B0=B0=B0=B0=B0=B0=B0=B0=B0=B0=B0=B0=B0=B0=B0=B0=B0=B0=
=B0=B0=B0=B0=B0=B0=B0=B0=B0=B0=B0=B0=B0=B0=B0=B0=B0=B0=B0=B0=B0=B0=B0=B0=B0=
=B0=B0=B0=B0=B0=B0=B0=B0=B0=B0=B0=B0=B0=B0=B0=B0=B0=B0=B0=B0=B0=B0=B0=B0=B0=
=B0=B0
                               ISLAND OF SHAME
 =B0=B0=B0=B0=B0=B0=B0=B0=B0=B0=B0=B0=B0=B0=B0=B0=B0=B0=B0=B0=B0=B0=B0=B0=
=B0=B0=B0=B0=B0=B0=B0=B0=B0=B0=B0=B0=B0=B0=B0=B0=B0=B0=B0=B0=B0=B0=B0=B0=B0=
=B0=B0=B0=B0=B0=B0=B0=B0=B0=B0=B0=B0=B0=B0=B0=B0=B0=B0=B0=B0=B0=B0=B0=B0=B0=
=B0=B0

=20
 INTRO: =20
=20
 A               G               F               -
 ----------------------------------------------------------------
 ----------------------------------------------------------------
 2-----------------------------------------------5-7---9---7-5---
 ----------------2-----------------------------------------------
 --------------------------------3---------------3-5---7---5-3---
 ----------------------------------------------------------------

=20
 A               E               F               -
 ----------------------------------------------------------------
 ----------------------------------------------------------------
 2-----------------------------------------------5-7-7-7-7-9-9-9-
 ----------------2-----------------------------------------------
 --------------------------------3---------------3-5-5-5-5-7-7-7-
 ----------------------------------------------------------------
=20
=20
 A               E               F               -
 ----------------------------------------------------------------
 ------------------------------------------------1---3-5---3-1---
 2---2-2-2-2-2-2-0/2-2-2-2-2-2-2-0/2-2-2-2-2-2-2-2---4-5---4-2---
 ----------------------------------------------------------------
 ----------------------------------------------------------------
 ----------------------------------------------------------------
=20

 A               E               F               -
 ----------------------------------------------------------------
 ------------------------------------------------1-3-3-3-3-5-5-5-
 2---2-2-2-2-2-2-0/2-2-2-2-2-2-2-0/2-2-2-2-2-2-2-2-4-4-4-4-5-5-5-
 ----------------------------------------------------------------
 ----------------------------------------------------------------
 ----------------------------------------------------------------


=20
 SOMETHING:
=20
 F       D       E       F       D       A      =20
 ------------------------------------------------
 ------------------------------------------------
 10------7-------9-------10------7---------------
 10------7-------9-------10------7-----------7---
 8-------5-------7-------8-------5-----------7---
 ----------------------------------------5-5-5---


 F       D       E                    =20
 --------------------------------
 --------------------------------
 10------7-------9---9-9-9-9-9-9-
 10------7-------9---9-9-9-9-9-9-
 8-------5-------7---7-7-7-7-7-7-
 --------------------------------
=20
=20
=20
 MAIN PART (two times):=20
=20
 A               F               C               D
 ----------------------------------------------------------------
 ----------------------------------------------------------------
 ----------------1010--9-10------5-5---4-5-------7-------7--5--4-
 7-------7-------1010--9-10------5-5---4-5-------7-------7--5--4-
 7-------7-------8-8---7-8-------3-3---2-3-------5-------5--3--2-
 5-----5-5-------------------------------------------------------
=20
=20
 A               F               C               D
 ----------------------------------------------------------------
 ----------------------------------------------------------------
 ----------------1010--9-10------5-5---4-5-------7777------------
 7-----5-7-------1010--9-10------5-5---4-5-------7777------------
 7-----5-7-------8-8---7-8-------3-3---2-3-------5555----3--2--3-
 5-----3-5-------------------------------------------------------
=20
=20
 F       C       F               A       G  A  B A       G  C  D
 ----------------------------------------------------------------
 ----------------------------------------------------------------
 x-10-10----9-10-x------------------------------------------5--7-
 x-10-10-10-9-10-x-10-9--7--9-10-x-7--7--5--7--9-x-7--7--5--5--7-
 x-8--8--10-7-8--x-12-10-8--1012-x-7--7--5--7--9-x-7--7--5--3--5-
 --------8-------------------------5--5--3--5--7-x-5--5--3-------
=20
=20
 F               -                               Here one beat too much :)
 ----------------------------------------------------
 ----------------------------------------------------
 x-10--10----10--------------------------------------
 x-10--10----10--7-5-----5-----------------------x---
 x-8---8-----8---------7---7-5---7-5-----5-------x---
 ------------------------------8-----8-7----8--7-x---


                                                     =20
 SOLO CHORDS:

 A         C   A C       E D   C A         C   A C  A  C B  A  G
 ----------------------------------------------------------------
 ----------------------------------------------------------------
 ----------5-----5-5---5-9-7---5-----------5-----5-----5-4--3----
 7-7---7-x-5---7-5-5---5-9-7---5-7-7---7-x-5---7-5--5--5-4--3--5-
 7-7---7-x-3---7-3-3---3-7-5---3-7-7---7-x-3---7-3--5--3-2--0--5-
 5-5---5-x-----5-----------------5-5---5-x-----5----3----------3-
=20
=20
 A         C   A C       E D   C A         C   A G       A      =20
 ----------------------------------------------------------------
 ----------------------------------------------------------------
 ----------5-----5-5---5-9-7---5-----------5---------------------
 7-7---7-x-5---7-5-5---5-9-7---5-7-7---7-x-5---7-5-------7-------
 7-7---7-x-3---7-3-3---3-7-5---3-7-7---7-x-3---7-5-------7-------
 5-5---5-x-----5-----------------5-5---5-x-----5-3--0-30-5-------
=20

=20
 MAIN PART TWICE MORE.
=20

=20
 OUTRO 1:

 A               G               F               G
 ----------------------------------------------------------------
 ----------------------------------------------------------------
 ----------------------------------------------------------------
 7---------------5---------------3---------------5---------------
 7---------------5---------------3---------------5---------------
 5---------------3---------------1---------------3---------------

=20
 A               G               F               -
 ----------------------------------------------------------------
 ----------------------------------------------------------------
 ----------------------------------------------------------------
 7---------------5---------------3---------------2/3-3-3-3/5-5-5-
 7---------------5---------------3---------------3/5-5-5-5/7-7-7-
 5---------------3---------------1-------------------------------


 A               G               F               G
 ----------------------------------------------------------------
 ----------------------------------------------------------------
 ----------------------------------------------------------------
 x-7---7---7---7-x-5---5---5---5-x-3---3---3---3-x-5---5---5---5-
 x-7---7---7---7-x-5---5---5---5-x-3---3---3---3-x-5---5---5---5-
 x-5---5---5---5-x-3---3---3---3-x-1---1---1---1-x-3---3---3---3-


 A               G               F               E
 ----------------------------------------------------------------
 ----------------------------------------------------------------
 ----------------------------------------------------------------
 x-7---7---7---7-x-5---5---5---5-x-3---3---3---3-2-x-------------
 x-7---7---7---7-x-5---5---5---5-x-3---3---3---3-2-x-------------
 x-5---5---5---5-x-3---3---3---3-x-1---1---1---1-0-x-------------

=20
 A               C               D               E
 ----------------------------------------------------------------
 ----------------------------------------------------------------
 ----------------5-5---5-5-5---5-7-7---7-7-7---7-9-9---9-9-9---9-
 7-7---7-7-7---7-5-5---5-5-5---5-7-7---7-7-7---7-9-9---9-9-9---9-
 7-7---7-7-7---7-3-3---3-3-3---3-5-5---5-5-5---5-7-7---7-7-7---7-
 5-5---5-5-5---5-------------------------------------------------
=20
 chords as above)
 A               C               D               E
 ----------------------------------------------------------------
 ----------------------------------------------------------------
 2-2---2-2-2---2-------------------------------------------------
 ----------------2-2---2-2-2---2-3-3---3-3-3---3-2---------------
 ----------------------------------------------------------------
 ----------------------------------------------------------------

=20
 4 TIMES THE FIRST LINE OF SOMETHING.



=20




 =B0=B0=B0=B0=B0=B0=B0=B0=B0=B0=B0=B0=B0=B0=B0=B0=B0=B0=B0=B0=B0=B0=B0=B0=
=B0=B0=B0=B0=B0=B0=B0=B0=B0=B0=B0=B0=B0=B0=B0=B0=B0=B0=B0=B0=B0=B0=B0=B0=B0=
=B0=B0=B0=B0=B0=B0=B0=B0=B0=B0=B0=B0=B0=B0=B0=B0=B0=B0=B0=B0=B0=B0=B0=B0=B0=
=B0=B0
                                    LAZY     =20
 =B0=B0=B0=B0=B0=B0=B0=B0=B0=B0=B0=B0=B0=B0=B0=B0=B0=B0=B0=B0=B0=B0=B0=B0=
=B0=B0=B0=B0=B0=B0=B0=B0=B0=B0=B0=B0=B0=B0=B0=B0=B0=B0=B0=B0=B0=B0=B0=B0=B0=
=B0=B0=B0=B0=B0=B0=B0=B0=B0=B0=B0=B0=B0=B0=B0=B0=B0=B0=B0=B0=B0=B0=B0=B0=B0=
=B0=B0


=20
 INTRO:
=20
 ----------
 ----------
 ----------
 ----------
 0-5-7-9-x-
 ----------



 MAIN PART:
=20
 C               B               E               D
 ----------------------------------------------------------------
 ----------------------------------------------------------------
 5---------------4-------------------------------7---------------
 5---------------4---------------2---------------7---------------
 3---------------2---------------2---------------5---------------
 --------------------------------0-------------------------------
=20
=20
 G               B            =20
 ---------------------------------
 ---------------------------------
 12--------------16--16--16--x----
 12--------------16--16--16--x----
 10--------------14--14--14--x----
 ---------------------------------
=20
=20
 E               D               C               B
 ----------------------------------------------------------------
 ----------------------------------------------------------------
 9---------------7---------------5---------------4---------------
 9---------------7---------------5---------------4---------------
 7---------------5---------------3---------------2---------------
 ----------------------------------------------------------------
=20

 G               D               C               B
 ----------------------------------------------------------------
 ----------------------------------------------------------------
 ----------------7---------------5---------------4---------------
 5---------------7---------------5---------------4---------------
 5---------------5---------------3---------------2---------------
 3---------------------------------------------------------------

 (mute with right hand)
 E               C               D               C
 --------------------------------------------------------
 --------------------------------------------------------
 ----------------5---5---5---5---7---7---7---7---4---4---
 2---2---2---2---5---5---5---5---7---7---7---7---4---4---
 2---2---2---2---3---3---3---3---5---5---5---5---3---3---
 0---0---0---0-------------------------------------------


 E               C               D               C
 --------------------------------------------------------
 --------------------------------------------------------
 ----------------5---5---5---5---7---7---7---7---4---4---
 2---2---2---2---5---5---5---5---7---7---7---7---4---4---
 2---2---2---2---3---3---3---3---5---5---5---5---3---3---
 0---0---0---0-------------------------------------------

=20
 E               C               D             C
 --------------------------------------------------------
 --------------------------------------------------------
 ----------------5---5---5---5---7---7---7---7-4-x---4---
 2---2---2---2---5---5---5---5---7---7---7---7-4-x---4---
 2---2---2---2---3---3---3---3---5---5---5---5-3-x---3---
 0---0---0---0-------------------------------------------
=20
=20
 E               D               A               C       B
 ----------------------------------------------------------------
 ----------------------------------------------------------------
 ----------------7-------------------------------5-------4-------
 2---------------7---------------7---------------5-------4-------
 2---------------5---------------7---------------3-------2-------
 0-------------------------------5-------------------------------
=20

 E               D               A               G  B  D =20
 ----------------------------------------------------------------
 ----------------------------------------------------------------
 9---------------7----------------------------------4--7---------
 9---------------7---------------7---------------5--4--7---------
 7---------------5---------------7---------------5--2--5---7-9---
 --------------------------------5---------------3---------------

=20

 MAIN PART ONCE MORE.
=20
=20
 SOMETHING:
=20
 (three times:)
 E               D               A               C       B
 ----------------------------------------------------------------
 ----------------------------------------------------------------
 9---9---9-9-9-7-----7---7---7-------------------5-------4-------
 9---9---9-9-9-7-----7---7---7---7---7---7---7---5-------4-------
 7---7---7-7-7-5-----5---5---5---7---7---7---7---3-------2-------
 --------------------------------5---5---5---5-------------------
=20
 (the fourth time:)
 E               D               A              =20
 ------------------------------------------------
 ------------------------------------------------
 9---9---9-9-9-7-x-4-2-0-------2---------0-------
 9---9---9-9-9-7-x-------4-2-0-2---2-0-----2-----
 7---7---7-7-7-5-x-------------0-------3-----3-x-
 ------------------------------------------------
=20
=20
 THEN THE MAIN PART AGAIN, CUT AFTER FIRST LINE OF MUTING.
=20







 =B0=B0=B0=B0=B0=B0=B0=B0=B0=B0=B0=B0=B0=B0=B0=B0=B0=B0=B0=B0=B0=B0=B0=B0=
=B0=B0=B0=B0=B0=B0=B0=B0=B0=B0=B0=B0=B0=B0=B0=B0=B0=B0=B0=B0=B0=B0=B0=B0=B0=
=B0=B0=B0=B0=B0=B0=B0=B0=B0=B0=B0=B0=B0=B0=B0=B0=B0=B0=B0=B0=B0=B0=B0=B0=B0=
=B0=B0
                                KNOW IT ALL
 =B0=B0=B0=B0=B0=B0=B0=B0=B0=B0=B0=B0=B0=B0=B0=B0=B0=B0=B0=B0=B0=B0=B0=B0=
=B0=B0=B0=B0=B0=B0=B0=B0=B0=B0=B0=B0=B0=B0=B0=B0=B0=B0=B0=B0=B0=B0=B0=B0=B0=
=B0=B0=B0=B0=B0=B0=B0=B0=B0=B0=B0=B0=B0=B0=B0=B0=B0=B0=B0=B0=B0=B0=B0=B0=B0=
=B0=B0

=20
=20
 INTRO:
=20
 B               D#              E               F#
 ----------------------------------------------------------------
 ----------------------------------------------------------------
 ----------------8---8-8---8-8---9---9-9---9-9-9-----------------
 9---9-9---9-9---8---8-8---8-8---9---9-9---9-9-9---8-9---8-9-9-8-
 9---9-9---9-9---6---6-6---6-6---7---7-7---7-7-7-9-----9---------
 7---7-7---7-7---------------------------------------------------
=20

 B               D#              E               F#
 ----------------------------------------------------------------
 ----------------------------------------------------------------
 ----------------8---8-8---8-8---9---9-9---9-9-9-----------------
 9---9-9---9-9---8---8-8---8-8---9---9-9---9-9-9---8-9---8-9-11-8
 9---9-9---9-9---6---6-6---6-6---7---7-7---7-7-7-9-----9---------
 7---7-7---7-7---------------------------------------------------

=20
 B               D#              E               F#
 ----------------------------------------------------------------
 ----------------------------------------------------------------
 ----------------8-----6-----8---9---9-9---9-9-9---6-8---6-8-8-6-
 9---9-9---9-9---8-----6-----8---9---9-9---9-9-9-9-8-9---8-9-9-8-
 9---9-9---9-9---6-----4-----6---7---7-7---7-7-7-9-----9---------
 7---7-7---7-7---------------------------------------------------
=20

 B               D#              E               F#
 ----------------------------------------------------------------
 ----------------------------------------------------------------
 ----------------8---8-8---8-8---9---9-9---9-9-9-----------------
 9---9-9---9-9---8---8-8---8-8---9---9-9---9-9-9---8-9---8-9-9-8-
 9---9-9---9-9---6---6-6---6-6---7---7-7---7-7-7-9-----9---------
 7---7-7---7-7---------------------------------------------------
=20

=20
 VERSE 1:
=20
 (mute the faster-ones)
 E               F#              E               F#
 ----------------------------------------------------------------
 ----------------------------------------------------------------
 9---9-9-9-9-9-9-----------------9---9-9-9-9-9-9-----------------
 9---9-9-9-9-9-9---8-9---8-9-9-8-9---9-9-9-9-9-9---8-9---8-9-9-8-
 7---7-7-7-7-7-7-9-----9---------7---7-7-7-7-7-7-9-----9---------
 ----------------------------------------------------------------
=20
=20
 E               F#              B               G#
 ----------------------------------------------------------------
 ----------------------------------------------------------------
 9---9-9-9-9-9-9-----------------16----16----16--13----13----13--
 9---9-9-9-9-9-9---8-9---8-9-9-8-16----16----16--13----13----13--
 7---7-7-7-7-7-7-9-----9---------14----14----14--11----11----11--
 ----------------------------------------------------------------
=20
=20
 E               F#              E               F#
 ----------------------------------------------------------------
 ----------------------------------------------------------------
 9---9-9-9-9-9-9-----------------9---9-9-9-9-9-9-----------------
 9---9-9-9-9-9-9---8-9---8-9-9-8-9---9-9-9-9-9-9---8-9---8-9-9-8-
 7---7-7-7-7-7-7-9-----9---------7---7-7-7-7-7-7-9-----9---------
 ----------------------------------------------------------------
=20
=20
 E               F#              B               G#
 ----------------------------------------------------------------
 ----------------------------------------------------------------
 9---9-9-9-9-9-9-----------------4---4-4---4-4-------------------
 9---9-9-9-9-9-9---8-9---8-9-9-8-4---4-4---4-4---9\8-8\6-6\3-3/4-
 7---7-7-7-7-7-7-9-----9---------2---2-2---2-2---7\6-6\4-4\1-1/2-
 ----------------------------------------------------------------
=20

=20
 VERSE 1 GOES ON:
=20
 (play open)
 B               F#              G#              D#
 ----------------------------------------------------------------
 ----------------------------------------------------------------
 4---4-4---4-4-----------------------------------8---8-8---8-8-8-
 4---4-4---4-4---4---4-4---4-4-4-6---6-6---6-6---8---8-8---8-8-8-
 2---2-2---2-2---4---4-4---4-4-4-6---6-6---6-6---6---6-6---6-6-6-
 ----------------2---2-2---2-2-2-4---4-4---4-4-------------------
=20
=20
 E               B               F#  (muted)     -=20
 ----------------------------------------------------------------
 ----------------------------------------------------------------
 9-----9-----9---------------------------------------8\6-6\3-3/4-
 9-----9-----9---9-----9-----9---4---4-4-4-4-4-4-4-4-9\8-8\4-4---
 7-----7-----7---9-----9-----9---4---4-4-4-4-4-4-4-4-------------
 ----------------7-----7-----7---2---2-2-2-2-2-2-2-2-------------
=20
=20
 B               F#              G#              D#
 ----------------------------------------------------------------
 ----------------------------------------------------------------
 4---4-4-4-4-4-----------------------------------8---8-8---8-8-8-
 ----------------4---4-4---4-4-4-6---6-6---6-6---8---8-8---8-8-8-
 ----------------4---4-4---4-4-4-6---6-6---6-6---6---6-6---6-6-6-
 ----------------2---2-2---2-2-2-4---4-4---4-4-------------------
=20
=20
 E               B               E               F#
 ----------------------------------------------------------------
 ----------------------------------------------------------------
 9---9---9-9-9-------------------9---9---9-9-9-11----11--11--11--
 9---9---9-9-9-9-----9---9-9-9---9---9---9-9-9-11----11--11--11--
 7---7---7-7-7-9-----9---9-9-9---7---7---7-7-7-9-----9---9---9---
 --------------7-----7---7-7-7-----------------------------------
=20

=20
 CHORUS 1:
=20
 B               D#              E              =20
 ------------------------------------------------
 ------------------------------------------------
 ----------------8---8-8-8-8-8-8-9---9---9-9-9---
 9---9---9-9-9-9-8---8-8-8-8-8-8-9---9---9-9-9---
 9---9---9-9-9-9-6---6-6-6-6-6-6-7---7---7-7-7---
 7---7---7-7-7-7---------------------------------
=20
=20
 B               D#              E         F#   =20
 ------------------------------------------------
 ------------------------------------------------
 ------------------------------------------6-----
 9---9-9-9-9-9-9-8---8-8-8-8-8-8-9---9-9-9-4-----
 9---9---9---9---6---6---6-------7---7-7-7-4-----
 7---7---7---7-----------------------------2-----
=20
=20
 B               C#              D#              E
 ----------------------------------------------------------------
 ----------------------------------------------------------------
 ------------------------------------------------9-----9-----9---
 9---9-9-9-9-9-9-11--11--111111--8---8-8-8-8-8---9-----9-----9---
 9-------9-------11--------------6---6---6-------7-----7-----7---
 7-------7-------9-----------------------------------------------
=20
=20
=20
 VERSE 2, practically the same as VERSE 1.


=20
 CHORUS 2, like CHORUS 1 with one exeption:

 (last line of chorus 2):
 B               C#              D#              E
 --------------------------------------------------------------------------=
---
 --------------------------------------------------------------------------=
---
 ------------------------------------------------9-----9-----9-----9----9--=
-9-
 9---9-9-9-9-9-9-11--11--111111--8---8-8-8-8-8---9-----9-----9-----9----9--=
-9-
 9-------9-------11--------------6---6---6-------7-----7-----7-----7----7--=
-7-
 7-------7-------9---------------------------------------------------------=
---

=20
=20
 OUTRO:

=20
 B               D#              E               F#
 ----------------------------------------------------------------
 ----------------------------------------------------------------
 ----------------8---8-8---8-8---9---9-9---9-9-9-----------------
 9---9-9---9-9---8---8-8---8-8---9---9-9---9-9-9---8-9---8-9-9-8-
 9---9-9---9-9---6---6-6---6-6---7---7-7---7-7-7-9-----9---------
 7---7-7---7-7---------------------------------------------------
=20
=20
 B               D#              E               F#
 ----------------------------------------------------------------
 ----------------------------------------------------------------
 ----------------8---8-8---8-8---9---9-9---9-9-9-----------------
 9---9-9---9-9---8---8-8---8-8---9---9-9---9-9-9---8-9---8-9-10-8
 9---9-9---9-9---6---6-6---6-6---7---7-7---7-7-7-9-----9---------
 7---7-7---7-7---------------------------------------------------
=20
=20
 B               D#              E               F#
 ----------------------------------------------------------------
 ----------------------------------------------------------------
 ----------------8-----6-----8---9---9-9---9-9-9---6-8---6-8-8-6-
 9---9-9---9-9---8-----6-----8---9---9-9---9-9-9-9-8-9---8-9-9-8-
 9---9-9---9-9---6-----4-----6---7---7-7---7-7-7-9-----9---------
 7---7-7---7-7---------------------------------------------------
=20
=20
 B               D#              E              =20
 ------------------------------------------------
 ------------------------------------------------
 ----------------8-----6-----8---9---9-9---9-9-9-
 9---9-9---9-9---8-----6-----8---9---9-9---9-9-9-
 9---9-9---9-9---6-----4-----6---7---7-7---7-7-7-
 7---7-7---7-7-----------------------------------


 B                               B
 ----------------------------------------------------------------
 ----------------------------------------------------------------
 8-----6-----4-----3-----1---3---4-------------------------------
 9-----8-----6-----4-----2---4---4-------------------------------
 --------------------------------2-------------------------------
 ----------------------------------------------------------------








 =B0=B0=B0=B0=B0=B0=B0=B0=B0=B0=B0=B0=B0=B0=B0=B0=B0=B0=B0=B0=B0=B0=B0=B0=
=B0=B0=B0=B0=B0=B0=B0=B0=B0=B0=B0=B0=B0=B0=B0=B0=B0=B0=B0=B0=B0=B0=B0=B0=B0=
=B0=B0=B0=B0=B0=B0=B0=B0=B0=B0=B0=B0=B0=B0=B0=B0=B0=B0=B0=B0=B0=B0=B0=B0=B0=
=B0=B0
                            STOCKIN' THE NEIGHBORS
 =B0=B0=B0=B0=B0=B0=B0=B0=B0=B0=B0=B0=B0=B0=B0=B0=B0=B0=B0=B0=B0=B0=B0=B0=
=B0=B0=B0=B0=B0=B0=B0=B0=B0=B0=B0=B0=B0=B0=B0=B0=B0=B0=B0=B0=B0=B0=B0=B0=B0=
=B0=B0=B0=B0=B0=B0=B0=B0=B0=B0=B0=B0=B0=B0=B0=B0=B0=B0=B0=B0=B0=B0=B0=B0=B0=
=B0=B0

=20
=20
 INTRO:

=20
 GbG B C                         B
 ------------
 ------------
 ----4-5-----
 4-5-4-5-----
 4-5-2-3-----
 2-3---------
=20

 E
 ----------------------------------------------------------------
 ----------------------------------------------------------------
 ----------------------------------------------------------------
 2-2---2-4-4---4-5-5---5-7-7---7-9-9--9-7-7---7-5-5---5-4-4---4--
 ----------------------------------------------------------------
 ----------------------------------------------------------------
=20
=20
 ----------------------------------------------------------------
 ----------------------------------------------------------------
 --------------------------------------------------------4-4---4-
 2-2---2-4-4---4-5-5---5-7-7---7-9-9---9-7-7---7-5-5---5-4-4---4-
 --------5-5---5-3-3---3-5-5---5-7-7---7-5-5---5-3-3---3-2-2---2-
 ----------------------------------------------------------------
=20

=20
 VERSE 1:
=20
=20
 E     D E     D E     D E     D E     D E     D E             C
 ----------------------------------------------------------------
 ----------------------------------------------------------------
 9-9---7-9-9---7-9-9---7-9-9---7-9-9---7-9-9---7-9-9-----------5-
 9-9---7-9-9---7-9-9---7-9-9---7-9-9---7-9-9---7-9-9-----------5-
 7-7---7-7-7---7-7-7---7-7-7---7-7-7---7-7-7---7-7-7-----0-2-3-3-
 ------------------------------------------------------3---------
=20
=20
 C               D               E     D E     D E             E
 ----------------------------------------------------------------
 ----------------------------------------------------------------
 5-------------7-----7---------9---9---7-9-9---7-9-9-------------
 5-------5-4---7-----7---5-----9---9---7-9-9---7-9-9-----------2-
 3-----------7-5-----5-----7-5-7---7---7-7-7---7-7-7---0-1-0---2-
 ------------------------------------------------------------3-0-
=20
=20
 E               G               A               B
 ----------------------------------------------------------------
 ----------------------------------------------------------------
 --------------------------------2---------------4---------------
 2---------------5---------------2---------------4---------------
 2---------------5---------------0---------------2---------------
 0---------------3-----------------------------------------------
=20
=20
 C               G               A                =20
 -----------------------------------------------------------12-x-
 ------------------------------------------------9-10-11-12-12-x-
 5---------------------------------------7-8-9-12-----------13-x-
 5---------------5-----------------7-8-9-------------------------
 3---------------5------------10---------------------------------
 ----------------3-----------------------------------------------
=20
=20
 E                               A              A                -
 ------------------------------------------------------------------------
 ------------------------------------------------------------------------
 ----------------------------------------------2-----2-------------------
 2-----------------------x-2-x-5-----5---x-x-x-2-----2-----------x-------
 2-----------------------x-2-x-5-----5---x-x-x-0-----0---1-0-----x-------
 0-----------------------0-0-0-3-----3---3-3-3---------------3-0-x-------


 E                               C               A             E =20
 ----------------------------------------------------------------
 ----------------------------------------------------------------
 --------------------------------x-x-5---5---5---2---2-----------
 2-------------------------------x-x-5---5---5---2---2---------2-
 2-------------------------------3-3-3---3---3---0---0---3-2---2-
 0-----------------------------------------------------------3-0-

=20
 E                               A               B               -
 ------------------------------------------------------------------------
 --------5-------4-------3-----------------------------------------------
 ----------------------------------------------2-----2---3-2-------------
 2-----------------------------x-5---5---x-x-x-2-----2---x-x-5-2-x-------
 2-----------------------------x-5---5---x-x-x-0-----0---1-0-x-x-x-------
 0-----------------------------0-3---3---3-3-3---------------3-0-x-------
=20
=20
 E                               C               A              =20
 ----------------------------------------------------------------
 ----------------------------------------------------------------
 --------------------------------5-555-5-----5---4-444-4-----4---
 2-------------------------------5-555-5-----5---4-444-4-----4---
 2-------------------------------3-333-3-----3---2-222-2-----2---
 0---------------------------------------------------------------
=20
=20

 SOME MIDDLE-RIFF:

=20
 E
 ------------------------------------------------------x-x-x---x-
 ------------------------------------------------------x-x-x---x-
 9-x---------------------------------------------------x-x-x---x-
 9-x-------------------------------------------------------------
 7-x-------------------------------------------------------------
 ----------------------------------------------------------------
=20
=20
 ------------------------------------------------
 ------------------------------------------------
 ------------------------------------------------
 2-2---2-4-4---4-5-5---5-7-7---7-9-9--9-7-7---7--
 ------------------------------------------------
 ------------------------------------------------
=20
=20

 VERSE 2 just like VERSE 1 with one exeption:
=20
=20
 line 4:
=20
 C               G               E               =20
 ----------------------------------------------------------------
 ----------------------------------------------------------------
 5-------------------------------9-9---7-9-9---7-9---------------
 5---------------5---------------9-9---7-9-9---7-9---------------
 3---------------5---------------7-7---7-7-7---7-7---------------
 ----------------3-----------------------------------------------
=20
=20
 PARTY-SCENARIO IN 3/3 (many times or something):


 (beat): I           I           I           I
 (in 3)  ------------------------------------------------
         ------------------------------------------------
         ------------------------------------------------
         ------------------------------------------------
         2---2-2-----------------2---2-2---2-------------
   3~~~~~0---0-0---3-x---3-------0---0-0---0-3~~~~~------
=20
=20
         (finally sometime):
 (beat): I           I           I           I   I   I           =20
 (in 3)  ------------------------------------------------
         ------------------------------------------------
         ----------5-----3-----3-------------------------
         ------------------4-----4---3-2---0-2-----------
         ----2-2-----------------------------2-----------
         ----0-0-----------------------------0-----------
=20
 (beat): I               I               I               I                 =
=20
 (in 4)  ----------------------------------------------------------------
         ----------------------------------------------------------------
         ----------------------3-----2---0-------------------------------
         ------------------------------------2---0-----------------------
         --------------------------------------------2---0---------------
         ----------------------------------------------------3-----------
=20
=20
=20
 SOLO CHORDS:

=20
 E               G               A               B
 ----------------------------------------------------------------
 ----------------------------------------------------------------
 --------------------------------2---------------4---------------
 2---------------5---------------2---------------4---------------
 2---------------5---------------0---------------2---------------
 0---------------3-----------------------------------------------
=20
=20
 C               G               E               =20
 ----------------------------------------------------------------
 ----------------------------------------------------------------
 5-------------------------------9-9---9-9-9---9-9-9-x-----------
 5---------------5---------------9-9---9-9-9---9-9-9-x-----------
 3---------------5---------------7-7---7-7-7---7-7-7-x-----------
 ----------------3-----------------------------------------------
=20
=20
=20
 VERSE 2 just like VERSE 1.
=20
=20
=20





 =B0=B0=B0=B0=B0=B0=B0=B0=B0=B0=B0=B0=B0=B0=B0=B0=B0=B0=B0=B0=B0=B0=B0=B0=
=B0=B0=B0=B0=B0=B0=B0=B0=B0=B0=B0=B0=B0=B0=B0=B0=B0=B0=B0=B0=B0=B0=B0=B0=B0=
=B0=B0=B0=B0=B0=B0=B0=B0=B0=B0=B0=B0=B0=B0=B0=B0=B0=B0=B0=B0=B0=B0=B0=B0=B0=
=B0=B0
                                GIVE IT BACK
 =B0=B0=B0=B0=B0=B0=B0=B0=B0=B0=B0=B0=B0=B0=B0=B0=B0=B0=B0=B0=B0=B0=B0=B0=
=B0=B0=B0=B0=B0=B0=B0=B0=B0=B0=B0=B0=B0=B0=B0=B0=B0=B0=B0=B0=B0=B0=B0=B0=B0=
=B0=B0=B0=B0=B0=B0=B0=B0=B0=B0=B0=B0=B0=B0=B0=B0=B0=B0=B0=B0=B0=B0=B0=B0=B0=
=B0=B0
=20
=20
=20
 INTRO BASSLINE:
=20
 --------2-------------0-----------------2-------------5---------
 ----2-------2-----2-------2---------2-------2-----2-------2-----
 0-------------3-------------3---0-------------3-------------3---
 ----------------------------------------------------------------
=20
=20
 INTRO (two times):
=20
 Am              Am7             Fmaj7           Am7
 ----------------0---------------0-------------------------------
 1---------------1---------------1---------------1---------------
 2---------------0---------------2---------------2---------------
 2---------------2---------------3---------------2---------------
 0---------------0---------------0---------------0---------------
 ----------------------------------------------------------------
=20
=20
=20
 MAIN RIFF (four times):

 A               C               G               F           C
 ----------------------------------------------------------------
 ----------------------------------------------------------------
 2---2---2---2-5-----5---5---5-------------------------------5---
 2---2---2---2-5-----5---5---5---5---5---5-5-x-3-----x-x-x-x-5---
 0---0---0---0-3-----3---3---3---5---5---5-5-x-3-----x-x-x-x-3---
 --------------------------------3---3---3-3-x-1-----1-1-1-1-----
=20
=20
=20
 "YOU HATE THEM" -PART:
=20
 (two times):
 A               C               A               F           =20
 ----------------------------------------------------------------
 ----------------------------------------------------------------
 2---2---2---2-5-----5---5---5---2---2---2---2-------------------
 2---2---2---2-5-----5---5---5---2---2---2---2-3-----3---3---3-3-
 0---0---0---0-3-----3---3---3---0---0---0---0-3-----3---3---3-3-
 ----------------------------------------------1-----1---1---1-1-
=20
=20
 (you hate them -riff):
 E                               E
 ----------------------------------------------------------------
 ----------------------------------------------------------------
 --------------0-------------------------------------------------
 --------0-1-2-----0-2-0-------2-----2---x-x-x-2-----2---2-------
 0---3-0-----------------3-0---0-----0---x-x-x-0-----0---0-------
 ----------------------------3-----------------------------3-----
=20

 E                               E
 ----------------------------------------------------------------
 ------------------------3-4-5-----------------------------------
 --------------0-----2-0-----------------------------------------
 --------0-1-2-----2-----------2-----2---x-x-x-2-----2---2-------
 0---3-0-----------------------0-----0---x-x-x-0-----0---0-------
 ----------------------------------------------------------3-----


 (two times):
 E                               E
 ----------------------------------------------------------------
 --------------------------------------------------------3-4-5---
 --------------0-------------------------------0-----2-x---------
 --------0-1-2-----0-2-0-----------------0-1-2-----2-------------
 0---3-0-----------------3-0---0---0-3-0-------------------------
 ----------------------------3-----------------------------------
=20
=20
=20
=20
 VERSE 1:

 A               F               G               D           E
 ----------------------------------------------------------------
 ----------------------------------------------------------------
 2---x---x---2---------------------------------7-----x---9---x---
 2---x---x---2-3-----x---x---x-5-----x---x---x-7-----x---9---x---
 0---x---x---0-3-----x---x---x-5-----x---x---x-5-----5---7---7---
 --------------1-----x---x---x-3-----x---x---x-------------------
=20
=20
 A               F               G               E           =20
 ----------------------------------------------------------------
 ----------------------------------------------------------------
 2---x---x---2---------------------------------------------------
 2---x---x---2-3-----x---x---x-5-----x---x---x-2---3-0-2-0-------
 0---x---x---0-3-----x---x---x-5-----x---x---x-------------3-----
 --------------1-----x---x---x-3-----x---x---x---------------5---
=20
=20
 A               F               G               D           E
 ----------------------------------------------------------------
 ----------------------------------------------------------------
 2---2---2---2---------------------------------7-----7---9---9---
 2---2---2---2-3-----3---3---3-5-----5---5---5-7-----7---9---9---
 0---0---0---0-3-----3---3---3-5-----5---5---5-5-----5---7---7---
 --------------1-----1---1---1-3-----3---3---3-------------------
=20
=20
 A               F               G               C       G   A
 ----------------------------------------------------------------
 ----------------------------------------------------------------
 2---2---2---2-----------------------------------5-----------2---
 2---2---2---2-3-----3---3---3-5-----5---5---5---5-----5-----2---
 0---0---0---0-3-----3---3---3-5-----5---5---5---3-----5-----0---
 --------------1-----1---1---1-3-----3---3---3---------3---------
=20
=20

 CHORUS:

 A                               F                           =20
 ----------------------------------------------------------------
 ----------------------------------------------------------------
 ----2---------2-----2-------------------------------------------
 ----2---x-x-x-2-----2-----------3---3---x-x-x-3-----3-----------
 ----0---x-x-x-0-----0---3-2-0---3---3---x-x-x-3-----3---3---2---
 ------------------------------3-1---1---1-1-1-1-----1-----------
=20
=20
 G       C       G       D                                   =20
 ----------------------------------------------------------------
 ----------------------------------------------------------------
 --------5-------------7-----------------------0-----------------
 5---5---5---x-5-----5-7---5-------------0-1-2-----0-2-0---------
 5---5---3---x-5-----5-5---5---0-----3-0-----------------3-0-----
 3---3-------3-3-----3-----3---------------------------------3---
=20
 A                               F                           =20
 ----------------------------------------------------------------
 ----------------------------------------------------------------
 ----2---------2-----2-------------------------------------------
 ----2---x-x-x-2-----2-----------3---3---x-x-x-3-----3-----------
 ----0---x-x-x-0-----0---3-2-0---3---3---x-x-x-3-----3---3---2---
 ------------------------------3-1---1---1-1-1-1-----1-----------
=20
=20
 G                               A               G       C   =20
 ----------------------------------------------------------------
 ----------------------------------------------------------------
 --------------------------------------------2---x---------5-----
 5---x-x-x-x-x-x-x-x-x-x-x-x-x-x-------------2---x-5-----x-5-----
 5---x-x-x-x-x-x-x-x-x-x-x-x-x-x-0---3-0-3-0-0---x-5-----x-3-----
 3---3-3-3-3-3-3-3-3-3-3-3-3-3-3-------------------3-----x-------
=20
=20
=20
 VERSE 2 like VERSE 1 but:

 (fourth line):
 A               F               G =20
 ----------------------------------------------------------------
 ----------------------------------------------------------------
 2---2---2---2---------------------------------------------------
 2---2---2---2-3-----3---3---3-5-----5---5---5-5-x---------------
 0---0---0---0-3-----3---3---3-5-----5---5---5-5-x---------------
 --------------1-----1---1---1-3-----3---3---3-3-x---------------

=20
=20
 CHORUS.


 INTRO BASSLINE.


 "YOU HATE THEM" -PART:=20
=20
 (two times):
 A               C               A               F           =20
 ----------------------------------------------------------------
 ----------------------------------------------------------------
 2---2---2---2-5-----5---5---5---2---2---2---2-------------------
 2---2---2---2-5-----5---5---5---2---2---2---2-3-----3---3---3-3-
 0---0---0---0-3-----3---3---3---0---0---0---0-3-----3---3---3-3-
 ----------------------------------------------1-----1---1---1-1-
=20
=20
 (two times):
 E                               E
 --------------------------------------------------------------0-
 --------------------------------------------------------3-4-5---
 --------------0-------------------------------0-----2-x---------
 --------0-1-2-----0-2-0-----------------0-1-2-----2-------------
 0---3-0-----------------3-0---0---0-3-0-------------------------
 ----------------------------3-----------------------------------

=20
 E                               =20
 ----------------------------------------
 ----4-3-1-3-1---1-----------------------
 --------------2-----2-0---0-1-2-x-------
 ------------------------2---------------
 ----------------------------------------
 ----------------------------------------





  Right now is 31.12 1994 and my wrist-watch goes at 11.54 pm. I think I'll
show my nose outside for a while and launch (yea right :) my 12 Roman
candles. A happy 1995 to everyone!







 =B0=B0=B0=B0=B0=B0=B0=B0=B0=B0=B0=B0=B0=B0=B0=B0=B0=B0=B0=B0=B0=B0=B0=B0=
=B0=B0=B0=B0=B0=B0=B0=B0=B0=B0=B0=B0=B0=B0=B0=B0=B0=B0=B0=B0=B0=B0=B0=B0=B0=
=B0=B0=B0=B0=B0=B0=B0=B0=B0=B0=B0=B0=B0=B0=B0=B0=B0=B0=B0=B0=B0=B0=B0=B0=B0=
=B0=B0
                                    RUST
 =B0=B0=B0=B0=B0=B0=B0=B0=B0=B0=B0=B0=B0=B0=B0=B0=B0=B0=B0=B0=B0=B0=B0=B0=
=B0=B0=B0=B0=B0=B0=B0=B0=B0=B0=B0=B0=B0=B0=B0=B0=B0=B0=B0=B0=B0=B0=B0=B0=B0=
=B0=B0=B0=B0=B0=B0=B0=B0=B0=B0=B0=B0=B0=B0=B0=B0=B0=B0=B0=B0=B0=B0=B0=B0=B0=
=B0=B0


=20
 INTRO:
=20
=20
 (fade in and then four times):
 A               C               A               C
 ----------------------------------------------------------------
 ----------------------------------------------------------------
 2---2---2-------5---5---5-------2---2---2-------5---5---5-------
 2---2---2-------5---5---5-------2---2---2-------5---5---5-------
 0---0---0-------3---3---3-------0---0---0-------3---3---3-------
 ----------------------------------------------------------------
=20
=20
 A                               F               =20
 ----------------------------------------------------------------
 ----------------------------------------------------------------
 2---------------------------------------------------------------
 2-----------------------------------------------0---------------
 0---------------------------------------0---3-------3---2-------
 --------------------------------x---1-----------------------3---
=20
=20

 MAIN RIFF:=20

 (four times):
 A               C               F               -
 ----------------------------------------------------------------
 ----------------------------------------------------------------
 2---2---2---2-------5---5---5-----------------------------------
 2---2---2---2-------5---5---5-------------------0---------------
 0---0---0---0---x---3---3---3---x-------0---3-------3---2-------
 ------------------------------------1-----------------------3---
=20
=20
=20
 VERSE 1:

 A               C               F               F
 ----------------------------------------------------------------
 ----------------------------------------------------------------
 2---2---2---2-------5---5---5-----------------------------------
 2---2---2---2-------5---5---5-------3---3---3---3-------3-------
 0---0---0---0---x---3---3---3---x---3---3---3---3-------3-------
 ------------------------------------1---1---1---1-------1-------
=20
=20
 A               G               F               E       =20
 ----------------------------------------------------------------
 ----------------------------------------------------------------
 2---2---2---2---------------------------------------------------
 2---2---2---2-------5---5---5-------3---3---3---x-2---2-2-------
 0---0---0---0---x---5---5---5---x---3---3---3---x-2---2-2-------
 --------------------3---3---3-------1---1---1---0-0---0-0-------
=20
=20
 A               C               F               F
 ----------------------------------------------------------------
 ----------------------------------------------------------------
 2---2---2---2-------5---5---5-----------------------------------
 2---2---2---2-------5---5---5-------3---3---3---3-------3-------
 0---0---0---0---x---3---3---3---x---3---3---3---3-------3-------
 ------------------------------------1---1---1---1-------1-------
=20
=20
 A                               C                       =20
 ----------------------------------------------------------------
 ----------------------------------------------------------------
 2---2---2---2-------------------5-------------------------------
 2---2---2---2-------------------5-------------------------------
 0---0---0---0---x---------------3-------------------------------
 ----------------------------------------------------------------
=20
=20
 (three times):
 A               C               F               E
 ----------------------------------------------------------------
 ----------------------------------------------------------------
 2---2---2---2-------5---5---5-----------------------------------
 2---2---2---2-------5---5---5-------3---3---3-----------0-------
 0---0---0---0---x---3---3---3---x---3---3---3-------3-----------
 ------------------------------------1---1---1---0---------------
=20
=20
 (fourth time):
 A               G               F               E
 ----------------------------------------------------------------
 ----------------------------------------------------------------
 2---2---2---2---------------------------------------------------
 2---2---2---2-------5---5---5-------3---3---3-------------------
 0---0---0---0---x---5---5---5-------3---3---3---x-------5-------
 --------------------3---3---3---1---1---1---1---1---0---3-------
=20
=20

 BRIDGE TO CHORUS:

 F                               A                =20
 ----------------------------------------------------------------
 ----------------------------------------------------------------
 --------------------------------2-------------------------------
 3-------------------------------2-------------------------------
 3-------------------------------0-------------------------------
 1---------------------------------------------------------------
=20
=20
 F                               A               G=20
 ----------------------------------------------------------------
 ----------------------------------------------------------------
 --------------------------------2-------------------------------
 3-------------------------------2---------------5---------------
 3-------------------------------0---------------5---------------
 1-----------------------------------------------3---------------
=20
=20
 D                               C                =20
 ----------------------------------------------------------------
 ----------------------------------------------------------------
 7-------------------------------5-------------------------------
 7-------------------------------5-------------------------------
 5-------------------------------3-------------------------------
 ----------------------------------------------------------------
=20
=20
 E                               A                =20
 ----------------------------------------------------------------
 ----------------------------------------------------------------
 ----------------------------------------------------------------
 2---------------------------5-------5---5---5---5---5---5-------
 2-----------------------------------------------------------0---
 0---------------------------------------------------------------
=20
=20
=20
 CHORUS 1:
=20
 A               C               F               E
 ----------------------------------------------------------------
 ----------------------------------------------------------------
 2---2---2---2-------5---5---5-------10--10--10--9---9---9-------
 2---2---2---2-------5---5---5-------10--10--10--9---9---9-------
 0---0---0---0---x---3---3---3---x---8---8---8---7---7---7---x---
 ----------------------------------------------------------------
=20
=20
 A               C               F               E
 ----------------------------------------------------------------
 ----------------------------------------------------------------
 2---2---2---2-------5---5---5-------10--10--10--12--12--12------
 2---2---2---2-------5---5---5-------10--10--10--12--12--12------
 0---0---0---0---x---3---3---3---x---8---8---8---10--10--10--x---
 ----------------------------------------------------------------
=20
=20
 A               C               F               E
 ----------------------------------------------------------------
 ----------------------------------------------------------------
 2---2---2---2-------5---5---5-------10--10--10--9---9---9-------
 2---2---2---2-------5---5---5-------10--10--10--9---9---9-------
 0---0---0---0---x---3---3---3---x---8---8---8---7---7---7---x---
 ----------------------------------------------------------------
=20
=20
 C               C               F               E
 ----------------------------------------------------------------
 ----------------------------------------------------------------
 5-----5-----5-----------5-------9-----9-----9---------------9---
 5-----5-----5-------x---5-----------------------------------9---
 3-----3-----3-------3---3-------7-----7-----7---------------7---
 ----------------------------------------------------------------
=20
=20
=20
 VERSE 2 like VERSE 2, but BRIGDE two times.



 SOMETHING 1:
=20
 (three times):
 A               C               G               A
 ----------------------------------------------------------------
 ----------------------------------------------------------------
 14--14--14--14------17--17--17------12--12--12--12/-14--14------
 14--14--14--14------17--17--17------12--12--12--12/-14--14------
 12--12--12--12--x---15--15--15--x---10--10--10--10/-12--12--x---
 ----------------------------------------------------------------
=20
 (the fourth time):
 F                               G            =20
 ----------------------------------------------------------------
 ----------------------------------------------------------------
 10------------------------------12------------------------------
 10------------------------------12------------------------------
 8-------------------------------10------------------------------
 ----------------------------------------------------------------
=20

 A               C                               =20
 -------------------------------------------------
 -------------------------------------------------
 14--14--14--14------17--17--17-------------------
 14--14--14--14------17--17--17-------------------
 12--12--12--12--x---15--15--15--x----------------
 -------------------------------------------------

=20
=20
 OUTRO (both lines three times):
=20
 F                               C                =20
 ----------------------------------------------------------------
 ----------------------------------------------------------------
 ----------------------------5-----------------------------------
 3-------x---x---x---x---x---5-----------------------------------
 3-------x---x---x---x---x---3-----------------------------------
 1-------1---1---1---1---1---------------------------------------
=20
=20
 A                               G               C       B
 ----------------------------------------------------------------
 ----------------------------------------------------------------
 2-------x---x---x---x---x-----------------------5-------4-------
 2-------x---x---x---x---x---5-------------------5-------4-------
 0-------0---0---0---0---0---5-------------------3-------2-------
 ----------------------------3-----------------------------------
=20
=20
 (the fourth time):
 F                               D                =20
 ----------------------------------------------------------------
 ----------------------------------------------------------------
 ----------------------------7-----------------------------------
 3-------x---x---x---x---x---7-----------------------------------
 3-------x---x---x---x---x---5-----------------------------------
 1-------1---1---1---1---1---------------------------------------
=20
=20
 E                             =20
 ----------------------------------------------------------------
 ----------------------------------------------------------------
 9-------9-------9-------9-------9---9---9---9---9---9---9---9---
 9-------9-------9-------9-------9---9---9---9---9---9---9---9---
 7-------7-------7-------7-------7---7---7---7---7---7---7---7---
 ----------------------------------------------------------------
=20
=20
 F                               G                           =20
 ----------------------------------------------------------------
 ----------------------------------------------------------------
 10------10------10--10--10--10--12------12------12--12--12--12--
 10------10------10--10--10--10--12------12------12--12--12--12--
 8-------8-------8---8---8---8---10------10------10--10--10--10--
 ----------------------------------------------------------------
=20
=20
=20
 OUTRO 2:
=20
 C                               E
 ----------------------------------------------------------------
 ----------------------------------------------------------------
 5---5-------5---5-------5-------9---9---9---9---9---9---9---9---
 5---5-------5---5-------5-------9---9---9---9---9---9---9---9---
 3---3-------3---3-------3-------7---7---7---7---7---7---7---7---
 ----------------------------------------------------------------
=20
=20
 F                               G                           =20
 ----------------------------------------------------------------
 ----------------------------------------------------------------
 10------10------10--10--10--10--12------12------12--12--12--12--
 10------10------10--10--10--10--12------12------12--12--12--12--
 8-------8-------8---8---8---8---10------10------10--10--10--10--
 ----------------------------------------------------------------
=20
=20
 A                               E
 ----------------------------------------------------------------
 ----------------------------------------------------------------
 2---2-------2---2-------2---------------------------------------
 2---2-------2---2-------2-------2---2-------2---2---2-------2---
 0---0-------0---0-------0-------2---2-------2---2---2-------2---
 --------------------------------0---0-------0---0---0-------0---
=20
=20
 F                               G                           =20
 ----------------------------------------------------------------
 ----------------------------------------------------------------
 10------10------10--10--10--10--12------12------12--12--12--12--
 10------10------10--10--10--10--12------12------12--12--12--12--
 8-------8-------8---8---8---8---10------10------10--10--10--10--
 ----------------------------------------------------------------
=20
=20
 C                               E
 ----------------------------------------------------------------
 ----------------------------------------------------------------
 5---5-------5---5-------5-------9---9---9---9---9---9---9---9---
 5---5-------5---5-------5-------9---9---9---9---9---9---9---9---
 3---3-------3---3-------3-------7---7---7---7---7---7---7---7---
 ----------------------------------------------------------------
=20
=20
 F                               G                           =20
 ----------------------------------------------------------------
 ----------------------------------------------------------------
 10------10------10--10--10--10--12------12------12--12--12--12--
 10------10------10--10--10--10--12------12------12--12--12--12--
 8-------8-------8---8---8---8---10------10------10--10--10--10--
 ----------------------------------------------------------------
=20
=20
 A             =20
 ----------------------------------------------------------------
 ----------------------------------------------------------------
 2---------------------------------------------------------------
 2---------------------------------------------------------------
 0---------------------------------------------------------------
 ----------------------------------------------------------------
=20







 =B0=B0=B0=B0=B0=B0=B0=B0=B0=B0=B0=B0=B0=B0=B0=B0=B0=B0=B0=B0=B0=B0=B0=B0=
=B0=B0=B0=B0=B0=B0=B0=B0=B0=B0=B0=B0=B0=B0=B0=B0=B0=B0=B0=B0=B0=B0=B0=B0=B0=
=B0=B0=B0=B0=B0=B0=B0=B0=B0=B0=B0=B0=B0=B0=B0=B0=B0=B0=B0=B0=B0=B0=B0=B0=B0=
=B0=B0
                                 GOIN' SOUTH
 =B0=B0=B0=B0=B0=B0=B0=B0=B0=B0=B0=B0=B0=B0=B0=B0=B0=B0=B0=B0=B0=B0=B0=B0=
=B0=B0=B0=B0=B0=B0=B0=B0=B0=B0=B0=B0=B0=B0=B0=B0=B0=B0=B0=B0=B0=B0=B0=B0=B0=
=B0=B0=B0=B0=B0=B0=B0=B0=B0=B0=B0=B0=B0=B0=B0=B0=B0=B0=B0=B0=B0=B0=B0=B0=B0=
=B0=B0
=20

=20
 INTRO (both lines two times):

 G                               D
 ----------------------------------------------------------------
 ----------------------------------------------------------------
 --------------------------------7---7-------7---7---7-------7---
 5---5-------5---5---5-------5---7---7-------7---7---7-------7---
 5---5-------5---5---5-------5---5---5-------5---5---5-------5---
 3---3-------3---3---3-------3-----------------------------------
=20
=20
 C               B               C
 ----------------------------------------------------------------
 ----------------------------------------------------------------
 x---5-------5---x---4-------4---x---5-------5---x---4-------4---
 x---5-------5---x---4-------4---x---5-------5---x---4-------4---
 3---3-------5---2---2-------2---3---3-------3---2---2-------2---
 ----------------------------------------------------------------
=20
=20
=20
 VERSE 1 (all three lines two times):
=20
=20
 G                               G
 ----------------------------------------------------------------
 ----------------------------------------------------------------
 ----------------------------------------------------------------
 5-5-5-------5---x---x---x---x-x-5-5-5-------5---x---x---x---x-x-
 5-5-5-------5---x---x---x---x-x-5-5-5-------5---x---x---x---x-x-
 3-3-3-------3---3---3---3---3-3-3-3-3-------3---3---3---3---3-3-
=20
=20
 C                               C
 ----------------------------------------------------------------
 ----------------------------------------------------------------
 5-5-5-------5---x---x---x---x-x-5-5-5-------5---x---x---x---x-x-
 5-5-5-------5---x---x---x---x-x-5-5-5-------5---x---x---x---x-x-
 3-3-3-------3---3---3---3---3-3-3-3-3-------3---3---3---3---3-3-
 ----------------------------------------------------------------
=20
=20
 C               B               C
 ----------------------------------------------------------------
 ----------------------------------------------------------------
 x---5-------5---x---4-------4---x---5-------5---x---4-------4---
 x---5-------5---x---4-------4---x---5-------5---x---4-------4---
 3---3-------5---2---2-------2---3---3-------3---2---2-------2---
 ----------------------------------------------------------------
=20
=20
 (then go on)
 D                               D
 ----------------------------------------------------------------
 ----------------------------------------------------------------
 7-7-7-------7---7---7-------7-----------------------------------
 7-7-7-------7---7---7-------7---7-----------9-----------7-------
 5-5-5-------5---5---5-------5-----------------------------------
 ----------------------------------------------------------------
=20
=20
=20
 CHORUS 1:
=20
 G                               F#
 ----------------------------------------------------------------
 ----------------------------------------------------------------
 ----------------------------------------------------------------
 12--12------12--12--12------12--12--12------12--12--12------12--
 10--10------10--10--10------10--9---9-------9---9---9-------9---
 ----------------------------------------------------------------
=20
=20
 A                               G#
 ----------------------------------------------------------------
 ----------------------------------------------------------------
 ----------------------------------------------------------------
 14--14------14--14--14------14--14--14------14--14--14------14--
 12--12------12--12--12------12--11--11------11--11--11------11--
 ----------------------------------------------------------------
=20
=20
 G               F#              E               D
 ----------------------------------------------------------------
 ----------------------------------------------------------------
 ----------------------------------------------------------------
 12--------------12--------------9---------------7---------------
 10--------------9---------------7---------------5---------------
 ----------------------------------------------------------------
=20
=20
 C               B               C               G       start slide up
 ----------------------------------------------------------------
 ----------------------------------------------------------------
 ----------------------------------------------------------------
 5---------------4---------------5---4/5-----4---5-------/-------
 3---------------2---------------3---2/3-----2---5-------/-------
 ------------------------------------------------3-------/-------
=20
=20
 G           slide down
 ----------------
 ----------------
 12----12----\---
 12----12----\---
 10----10----\---
 ----------------
=20
=20
=20
 VERSE 2 like VERSE 1 but at (then go on) stop at second D-chord.
=20
=20
=20
 CHORUS 2:
=20
 G                               F#
 ----------------------------------------------------------------
 ----------------------------------------------------------------
 ----------------------------------------------------------------
 12--12------12--12--12------12--12--12------12--12--12------12--
 10--10------10--10--10------10--9---9-------9---9---9-------9---
 ----------------------------------------------------------------
=20
=20
 A                               G#
 ----------------------------------------------------------------
 ----------------------------------------------------------------
 ----------------------------------------------------------------
 14--14------14--14--14------14--14--14------14--14--14------14--
 12--12------12--12--12------12--11--11------11--11--11------11--
 ----------------------------------------------------------------
=20
=20
 G               F#              C               D
 ----------------------------------------------------------------
 ----------------------------------------------------------------
 --------------------------------5---------------7---------------
 12--------------12--------------5---------------7---------------
 10--------------9---------------3---------------5----
Related for Trashed Album tab