Guitaretab - guitar tabs
Song name
# A B C D E F G H I J K L M N O P Q R S T U V W X Y Z

Lagwagon - Know It All tab

intro
e]------------------------------------------------------------|
b]------------------------------------------------------------|
g]----------------8-8-8-8-8-8-8-9-9-9-9-9-9-9-----------------|
d]9-9-9-9-9-9-9-9-8-8-8-8-8-8-8-9-9-9-9-9-9-9--8-9-8-9-9-9-8--|
a]9-9-9-9-9-9-9-9-6-6-6-6-6-6-6-7-7-7-7-7-7-7-9---------------|
e]7-7-7-7-7-7-7-7---------------------------------------------|

e]------------------------------------------------------------|
b]------------------------------------------------------------|
g]----------------8-8-8-8-8-8-8-9-9-9-9-9-9-9-----------------|
d]9-9-9-9-9-9-9-9-8-8-8-8-8-8-8-9-9-9-9-9-9-9--8-9-8-8-9-10-8-|
a]9-9-9-9-9-9-9-9-6-6-6-6-6-6-6-7-7-7-7-7-7-7-9---------------|
e]7-7-7-7-7-7-7-7---------------------------------------------|

e]------------------------------------------------------------------|
b]------------------------------------------------------------------|
g]----------------8-8-8-8-6-6-8-9-9-9-9-9-9-9-----------------------|
d]9-9-9-9-9-9-9-9-8-8-8-8-6-6-8-9-9-9-9-9-9-9--8-9-8-9-9-9--8-------|
a]9-9-9-9-9-9-9-9-6-6-6-6-4-4-6-7-7-7-7-7-7-7-9---------------------|
e]7-7-7-7-7-7-7-7---------------------------------------------------|
                                  guitar 2    played at the same time
                                           e]-----------------------|
                                           b]-----------------------|
                                           g]-----------------------|
                                           d]--11-13--13-13-13-11---|
                                           a]14-----14--------------|
                                           e]-----------------------|
e]------------------------------------------------------------------|
b]------------------------------------------------------------------|
g]----------------8-8-8-8-6-6-8-9-9-9-9-9-9-9-----------------------|
d]9-9-9-9-9-9-9-9-8-8-8-8-6-6-8-9-9-9-9-9-9-9--8-9-8-9-9-9-8--------|
a]9-9-9-9-9-9-9-9-6-6-6-6-4-4-6-7-7-7-7-7-7-7-9---------------------|
e]7-7-7-7-7-7-7-7---------------------------------------------------|

verse (look at the world...)
           3x
e]--------------------------|------------------------|
b]--------------------------|------------------------|
g]9-9-9-9-9-9---------------|16-16-16-16-13-13-13-13-|
d]9-9-9-9-9-9--8-9-8-9-9-9-8|16-16-16-16-13-13-13-13-|
a]7-7-7-7-7-7-9-------------|14-14-14-14-11-11-11-11-|
e]--------------------------|------------------------|
  pm. . . . .
        3x
e]--------------------------|---------------------------|
b]--------------------------|---------------------------|
g]9-9-9-9-9-9---------------|----------------98-643/4---|
d]9-9-9-9-9-9--8-9-8-9-9-9-8|9-9-9-9-9-9-9-9-xx-xxx/x---|
a]7-7-7-7-7-7-9-------------|9-9-9-9-9-9-9-9-76-421/2---|
e]--------------------------|7-7-7-7-7-7-7-7------------|
  pm. . . . .
per chorus
e]----------------------------------------------------|
b]----------------------------------------------------|
g]4-4-4-4-4-----------------------8-8-8-8-8-9-9-9-9-9-|
d]4-4-4-4-4-4-4-4-4-4-4-6-6-6-6-6-8-8-8-8-8-9-9-9-9-9-|
a]2-2-2-2-2-4-4-4-4-4-4-6-6-6-6-6-6-6-6-6-6-7-7-7-7-7-|
e]----------2-2-2-2-2-2-4-4-4-4-4---------------------|

e]--------------------------------------------|
b]--------------------------------------------|
g]--------------------------9p8p6-------------|
d]9-9-9-9-9-4-4-4-4-4-4-4-4------9p8h9-9-9-99-|
a]9-9-9-9-9-4-4-4-4-4-4-4-4-------------------|
e]7-7-7-7-7-2-2-2-2-2-2-2-2-------------------|
          pm. . . . . . . .

e]----------------------------------------------------|
b]----------------------------------------------------|
g]----------------------8-8-8-8-8-9-9-9-9-9-----------|
d]4-4-4-4-4-4-6-6-6-6-6-8-8-8-8-8-9-9-9-9-9-9-9-9-9-9-|
a]4-4-4-4-4-4-6-6-6-6-6-6-6-6-6-6-7-7-7-7-7-9-9-9-9-9-|
e]2-2-2-2-2-2-4-4-4-4-4---------------------7-7-7-7-7-|

e]---------------------------------|
b]---------------------------------|
g]9-9-9-9-9-9-9-9-1111111111111111-|
d]9-9-9-9-9-9-9-9-1111111111111111-|
a]7-7-7-7-7-7-7-7-9-9-9-9-9-9-9-9--|
e]---------------------------------|
chorus
know it all, know it all...
e]----------------------------------------------------------------|
b]----------------------------------------------------------------|
g]----------------8-8-8-8-8-8-8-8-9-9-9-9-9-9-9-9-----------------|
d]9-9-9-9-9-9-9-9-8-8-8-8-8-8-8-8-9-9-9-9-9-9-9-9-9-9-9-9-9-9-9-9-|
a]9-9-9-9-9-9-9-9-6-6-6-6-6-6-6-6-7-7-7-7-7-7-7-7-9-9-9-9-9-9-9-9-|
e]7-7-7-7-7-7-7-7---------------------------------7-7-7-7-7-7-7-7-|
[ Tab from: http://www.guitaretab.com/l/lagwagon/130177.html ]
e]-----------------------------------------------------------------------|
b]-----------------------------------------------------------------------|
g]8-8-8-8-8-8-8-8-9-9-9-9-9-9-9-9-9-9-11---------------------------------|
d]8-8-8-8-8-8-8-8-9-9-9-9-9-9-9-9-9-9-11-9-9-9-9-9-9-9-91111111111111111-|
a]6-6-6-6-6-6-6-6-7-7-7-7-7-7-7-7-7-7-9--9-9-9-9-9-9-9-91111111111111111-|
e]---------------------------------------7-7-7-7-7-7-7-7-9-9-9-9-9-9-9-9-|

e]---------------------------------|
b]---------------------------------|
g]---------------------------------|
d]12-12-12-12-12-12-12-12-14-14-14-|
a]12-12-12-12-12-12-12-12-14-14-14-|
e]10-10-10-10-10-10-10-10-12-12-12-|

verse
i remeber you and i...
           3x
e]--------------------------|------------------------|
b]--------------------------|------------------------|
g]9-9-9-9-9-9---------------|16-16-16-16-13-13-13-13-|
d]9-9-9-9-9-9--8-9-8-9-9-9-8|16-16-16-16-13-13-13-13-|
a]7-7-7-7-7-7-9-------------|14-14-14-14-11-11-11-11-|
e]--------------------------|------------------------|
  pm. . . . .
        3x
e]--------------------------|---------------------------|
b]--------------------------|---------------------------|
g]9-9-9-9-9-9---------------|----------------98-643/4---|
d]9-9-9-9-9-9--8-9-8-9-9-9-8|9-9-9-9-9-9-9-9-xx-xxx/x---|
a]7-7-7-7-7-7-9-------------|9-9-9-9-9-9-9-9-76-421/2---|
e]--------------------------|7-7-7-7-7-7-7-7------------|

pre chorus
e]----------------------------------------------------|
b]----------------------------------------------------|
g]4-4-4-4-4-----------------------8-8-8-8-8-9-9-9-9-9-|
d]4-4-4-4-4-4-4-4-4-4-4-6-6-6-6-6-8-8-8-8-8-9-9-9-9-9-|
a]2-2-2-2-2-4-4-4-4-4-4-6-6-6-6-6-6-6-6-6-6-7-7-7-7-7-|
e]----------2-2-2-2-2-2-4-4-4-4-4---------------------|

e]--------------------------------|
b]--------------------------------|
g]----------9-9-9-9-9-9-9-9-11----|
d]9-9-9-9-9-9-9-9-9-9-9-9-9-11----|
a]9-9-9-9-9-7-7-7-7-7-7-7-7-9-----|
e]7-7-7-7-7-----------------------|

chorus
know it all, know it all...
e]----------------------------------------------------------------|
b]----------------------------------------------------------------|
g]----------------8-8-8-8-8-8-8-8-9-9-9-9-9-9-9-9-----------------|
d]9-9-9-9-9-9-9-9-8-8-8-8-8-8-8-8-9-9-9-9-9-9-9-9-9-9-9-9-9-9-9-9-|
a]9-9-9-9-9-9-9-9-6-6-6-6-6-6-6-6-7-7-7-7-7-7-7-7-9-9-9-9-9-9-9-9-|
e]7-7-7-7-7-7-7-7---------------------------------7-7-7-7-7-7-7-7-|

e]-----------------------------------------------------------------------|
b]-----------------------------------------------------------------------|
g]8-8-8-8-8-8-8-8-9-9-9-9-9-9-9-9-9-9-11---------------------------------|
d]8-8-8-8-8-8-8-8-9-9-9-9-9-9-9-9-9-9-11-9-9-9-9-9-9-9-91111111111111111-|
a]6-6-6-6-6-6-6-6-7-7-7-7-7-7-7-7-7-7-9--9-9-9-9-9-9-9-91111111111111111-|
e]---------------------------------------7-7-7-7-7-7-7-7-9-9-9-9-9-9-9-9-|

e]---------------------------------------|
b]---------------------------------------|
g]---------------------------------------|
d]12-12-12-12-12-12-12-12-14-14-14-14-14-|
a]12-12-12-12-12-12-12-12-14-14-14-14-14-|
e]10-10-10-10-10-10-10-10-12-12-12-12-12-|

ending
e]------------------------------------------------------------|
b]------------------------------------------------------------|
g]----------------8-8-8-8-8-8-8-9-9-9-9-9-9-9-----------------|
d]9-9-9-9-9-9-9-9-8-8-8-8-8-8-8-9-9-9-9-9-9-9--8-9-8-9-9-9-8--|
a]9-9-9-9-9-9-9-9-6-6-6-6-6-6-6-7-7-7-7-7-7-7-9---------------|
e]7-7-7-7-7-7-7-7---------------------------------------------|

e]------------------------------------------------------------|
b]------------------------------------------------------------|
g]----------------8-8-8-8-8-8-8-9-9-9-9-9-9-9-----------------|
d]9-9-9-9-9-9-9-9-8-8-8-8-8-8-8-9-9-9-9-9-9-9--8-9-8-8-9-10-8-|
a]9-9-9-9-9-9-9-9-6-6-6-6-6-6-6-7-7-7-7-7-7-7-9---------------|
e]7-7-7-7-7-7-7-7---------------------------------------------|

e]-----------------------------------------------------------------|
b]-----------------------------------------------------------------|
g]----------------8-8-8-8-6-6-8-9-9-9-9-9-9-9----------------------|
d]9-9-9-9-9-9-9-9-8-8-8-8-6-6-8-9-9-9-9-9-9-9--8-9-8-9---9--9--8---|
a]9-9-9-9-9-9-9-9-6-6-6-6-4-4-6-7-7-7-7-7-7-7-9--------------------|
e]7-7-7-7-7-7-7-7--------------------------------------------------|
                                  guitar 2    played at the same time
                                           e]-----------------------|
                                           b]-----------------------|
                                           g]-----------------------|
                                           d]--11-13--13-13-13-11---|
                                           a]14-----14--------------|
                                           e]-----------------------|
e]------------------------------------------------------------------|
b]------------------------------------------------------------------|
g]----------------8-8-8-8-6-6-8-9-9-9-9-9-9-9--8-6------------------|
d]9-9-9-9-9-9-9-9-8-8-8-8-6-6-8-9-9-9-9-9-9-9------9-8-6-8-9--------|
a]9-9-9-9-9-9-9-9-6-6-6-6-4-4-6-7-7-7-7-7-7-7-----------------------|
e]7-7-7-7-7-7-7-7---------------------------------------------------|
Related for Know It All tab
Advertisement will be closed in 10 seconds