Song name
# A B C D E F G H I J K L M N O P Q R S T U V W X Y Z

Lagwagon - Rust tab

intro:
e-|-------------------------------------------------------------------------|
B-|-------------------------------------------------------------------------|
G-|-------------------------------------------------------------------------|
D-|-2-2-2-4-4-4-2-2-2-4-4-4-2-2-2-4-4-4-2-2-2-4-4-4-2-2-2-4-4-4-2-2-2-4-4-4-|
A-|-0-0-0-2-2-2-0-0-0-2-2-2-0-0-0-2-2-2-0-0-0-2-2-2-0-0-0-2-2-2-0-0-0-2-2-2-|
E-|-------------------------------------------------------------------------|

e-|-----------------------------|-------------------------------|
B-|-----------------------------|-------------------------------|
G-|-----------------------------|-------------------------------|
D-|-2-2-2-4-4-4-2---------------|-2-2-2-4-4-4-------------------|
A-|-0-0-0-2-2-2-0-----3-5-3-2-0-|-0-0-0-2-2-2-----3-5-3-2-0-----|
E-|---------------0-3-----------|-------------0-3-----------etc-|
verse:riff1 (and I guess the chorus pops up in here somewhere)
e-|-------------------------------------------------------------------------|
B-|-------------------------------------------------------------------------|
G-|-------------------------------------------------------------------------|
D-|-2-2-2-5-5-5-----------2-2-2-------------2-2-2-2-5-5-5-----------2-2-2-5-|
A-|-0-0-0-3-3-3-3-3-3-3-3-0-0-0-5-5-5-3-3-3-2-0-0-0-3-3-3-3-3-3-3-3-0-0-0-3-|
E-|-------------1-1-1-1-1-------3-3-3-1-1-1---------------1-1-1-1-1---------|
riff2
e-|-------------------------------------------------------------------------|
B-|-------------------------------------------------------------------------|
G-|-------------------------------------------------------------------------|
D-|-2-2-2-2-5-5-----------2-2-2-2-5-5-----------2-2-2-2-5-5-----------2-2-2-|
A-|-0-0-0-0-3-3-3-3-2-3-5-0-0-0-0-3-3-3-3-2-3-5-0-0-0-0-3-3-3-3-2-3-5-0-0-0-|
E-|-------------1-1-------------------1-1-------------------1-1-------------|
                             riff3
e-|-------------------------|----------------------------------|------------|
B-|-------------------------|----------------------------------|------------|
G-|-------------------------|------------------------7-7-7-7-7-|------------|
D-|-2-----------------------|----2-----2-2-----7-5---x-x-x-x-x-|------------|
A-|-0-5-5-5-5-3-3-3-3-2-3-5-|-3--0--3--0-0-5-5-5-3-2-5-5-5-5-5-|------------|
E-|---3-3-3-3-1-1-1-1-0-1-3-|-1-----1------3-3-----0-----------|------------|
bridge:
e-|-------------------------------------------------------------------------|
B-|-------------------------------------------------------------------------|
G-|-------------10-10-10-9-9-9-------------10-10-10-12-12-12----------------|
D-|-2-2-2-5-5-5--x--x--x-x-x-x-2-2-2-5-5-5--x--x--x-xx-xx-xx-2-2-2-5-5-5----|
A-|-0-0-0-3-3-3--8--8--8-7-7-7-0-0-0-3-3-3--8--8--8-10-10-10-0-0-0-3-3-3----|
E-|-------------------------------------------------------------------------|

e-|----------------------------------|
B-|----------------------------------|
G-|-10-10-10-9-9-9---------9-9-9-9-9-|
D-|--x--x--x-x-x-x-5-5-5-5-x-x-x-x-x-|
A-|--8--8--8-7-7-7-3-3-3-3-7-7-7-7-7-|
E-|----------------------------------|
second time you get to riff 3:
you play it once the way it is and the 2nd time like this
e-|-------------------------------------------------------|
B-|-------------------------------------------------------|
G-|--------------------------9-9-9-9-10-10-10-12-12-12-12-|
D-|----2-----2-2-----7-7-5-5-x-x-x-x--x--x--x-xx-xx-xx-xx-|
A-|-3--0--3--0-0-5-5-5-5-3-3-7-7-7-7--8--8--8-10-10-10-10-|
E-|-1-----1------3-3--------------------------------------|
2nd time you get to the bridge:
e-|-------------------------------------------------------------------------|
B-|-------------------------------------------------------------------------|
G-|-------------------------------------------------------------------------|
D-|-2-2-2-2-5-5-5---------2-2-2--2-2-2-2-5-5-5---------2-2-2--2-2-2-2-5-5-5-|
A-|-0-0-0-0-3-3-3-5-5-5-5-0-0-0--0-0-0-0-3-3-3-5-5-5-5-0-0-0--0-0-0-0-3-3-3-|
E-|---------------3-3-3-3----------------------3-3-3-3----------------------|

e-|-----------------------------------|
B-|-----------------------------------|
G-|-----------------------------------|
D-|---------2-2-2-------2-2-2-2-5-5-5-|
A-|-5-5-5-5-0-0-0-3--5--0-0-0-0-3-3-3-|
E-|-3-3-3-3-------1--3----------------|
outro:
e-|-------------------------------------------------------------------------|
B-|-------------------------------------------------------------------------|
G-|-------------------------------------------------------------------------|
D-|-----------5--2-2-2-2-2---5-4-----------5-2-2-2-2-2---5-4------------5---|
A-|-3-3-3-3-3-3--0-0-0-0-0-5-3-2-3-3-3-3-3-3-0-0-0-0-0-5-3-2-3-3-3-3-3--3---|
E-|-1-1-1-1-1--------------3-----1-1-1-1-1-------------3-----1-1-1-1-1------|

e-|-------------------------------------------------------------------------|
B-|-------------------------------------------------------------------------|
G-|-------------------------7-7-7-7-9-9-9-9-10-10-10-10-12-12-12-12-5-5-5-5-|
D-|-2-2-2-2-2---5-4---------7-7-7-7-9-9-9-9-10-10-10-10-12-12-12-12-5-5-5-5-|
A-|-0-0-0-0-0-5-3-2-3-3-3-3-5-5-5-5-7-7-7-7--8--8--8--8-10-10-10-10-3-3-3-3-|
E-|-----------3-----1-1-1-1-------------------------------------------------|

e-|-------------------------------------------------------------------------|
B-|-------------------------------------------------------------------------|
G-|-9-9-9-9-10-10-10-10-12-12-12-12---------9-9-9-9-10-10-10-10-12-12-12-12-|
D-|-9-9-9-9-10-10-10-10-12-12-12-12-7-7-7-7-9-9-9-9-10-10-10-10-12-12-12-12-|
A-|-7-7-7-7--8--8--8--8-10-10-10-10-7-7-7-7-7-7-7-7--8--8--8--8-10-10-10-10-|
E-|---------------------------------5-5-5-5---------------------------------|

e-|-------------------------------------------|
B-|-------------------------------------------|
G-|-5-5-5-5-9-9-9-9-10-10-10-10-12-12-12-12---|
D-|-5-5-5-5-9-9-9-9-10-10-10-10-12-12-12-12-7-|
A-|-3-3-3-3-7-7-7-7--8--8--8--8-10-10-10-10-7-|
E-|-----------------------------------------5-|
Tap to rate this tab
# A B C D E F G H I J K L M N O P Q R S T U V W X Y Z