Song name
# A B C D E F G H I J K L M N O P Q R S T U V W X Y Z

Lagwagon - Give It Back tab

during the opening bass line you just lightly strum an A chord

intro:
e-|-----------------------------------------------------------------|
B-|-----------------------------------------------------------------|
G-|-----------------------------------------------------------------|
D-|---------5-5-5-5---------------5---------5-5-5-5---------------5-|
A-|-7-7-7-7-3-3-3-3-5-5-5-5-3-3-3-3-7-7-7-7-3-3-3-3-5-5-5-5-3-3-3-3-|
E-|-5-5-5-5---------3-3-3-3-1-1-1---5-5-5-5---------3-3-3-3-1-1-1---|etc

you hate them...
e-|-----------------------------------------------------------------|
B-|-----------------------------------------------------------------|
G-|-----------------------------------------------------------------|
D-|---------5-5-5-5-------------------------5-5-5-5-----------------|
A-|-7-7-7-7-3-3-3-3-7-7-7-7-3-3-3-3-7-7-7-7-3-3-3-3-7-7-7-7-3-3-3-3-|
E-|-5-5-5-5---------5-5-5-5-1-1-1-1-5-5-5-5---------5-5-5-5-1-1-1-1-|

finger picking part...
e-|-------------------------------------------------------------------------|
B-|-------------------------------------------------------------------------|
G-|---------------------------------------------------------5-7-9-----------|
D-|-----------5---------------------------------------5-7-7-----------------|
A-|---3-5-7-7---7-7-5-3---7-7-x-x-x-7-7-7-5---3-5-7-7-------------7-7-x-x-x-|
E-|-5-------------------5-5-5-x-x-x-5-5-5-3-5---------------------5-5-x-x-x-|

e-|-------------------------------------------------------------------------|
B-|-------------------------------------------------------------------------|
G-|-----------------------------------------------5-7-9---------------------|
D-|-------------------5---------------------5-7-7-----------------5---------|
A-|-7-7-7-5---3-5-7-7---7-7-5-3-----3-5-7-7---------------3-5-7-7---7-7-5-3-|
E-|-5-5-5-3-5-------------------5-5---------------------5-------------------|

e-|---------------------------|
B-|---------------------------|
G-|-------------------5-7-7-9-|
D-|-------------5-7-7---------|
A-|-----3-5-7-7---------------|
E-|-5-5-----------------------|

I feel the changes...
e-|-------------------------------------------------------------------------|
B-|-------------------------------------------------------------------------|
G-|-------------------------------------------------------------------------|
D-|---------7-7-9-9------------------------------------------------7-7-9-9--|
A-|-7--3--5-5-5-7-7-7--3--5--7-8-8-7-------7-7-7-7-3-3-3-3-5-5-5-5-5-5-7-7--|
E-|-5--1--3---------5--1--3----------8-8-7-5-5-5-5-1-1-1-1-3-3-3-3----------|

                            give it back.. cuz i don't want it...
e-|--------------------------------|----------------------------------------|
B-|--------------------------------|----------------------------------------|
G-|--------------------------------|----------------------------------------|
D-|-------------------------5------|----------------------------------------|
A-|-7-7-7-7-3-3-3-3-5-5-5-5-3-5-7--|-7-7-x-x-7-7-x-x-3-3-x-x-3-3-x-x-5-5-x--|
E-|-5-5-5-5-1-1-1-1-3-3-3-3---3-5--|-5-5-x-x-5-5-x-x-1-1-x-x-1-1-x-x-3-3-x--|
2nd time you get to the above part you just play "G" longer and end on "A"

e-|-------------------------------------------------------------------------|
B-|-------------------------------------------------------------------------|
G-|-------------------------------------------------------------------------|
D-|-----------------------5-------------------------------------------------|
A-|-x-5-5-x-x-5---3-5-7-7---7-7-5-3---7-7-x-x-7-7-3-3-x-x-3-3-x-x-5-5-x-x-5-|
E-|-x-3-3-x-x-3-5-------------------5-5-5-x-x-5-5-1-1-x-x-1-1-x-x-3-3-x-x-3-|

e-|---------------------|
B-|---------------------|
G-|---------------------|
D-|-----------------5---|
A-|-5---3-5-5-3-7-5-3-7-|
E-|-3-5---------5-3---5-|

outro:
e-|-------------------------------------------------------------------------|
B-|-------------------------------------------------------------------------|
G-|---------------------------------------5-7-9-----------------------------|
D-|-----------5---------------------5-7-7-----------------5-----------------|
A-|---3-5-7-7---7-7-5-3-----3-5-7-7---------------3-5-7-7---7-7-5-3-----3-5-|
E-|-5-------------------5-5---------------------5-------------------5-5-----|

e-|-----------------------------------------|
B-|-----------------------------------------|
G-|-----------5-7-7-9-7-5-7-5---5-----------|
D-|-----5-7-7-----------------5---7-5-5-6-7-|
A-|-7-7-------------------------------------|
E-|-----------------------------------------|
Tap to rate this tab
# A B C D E F G H I J K L M N O P Q R S T U V W X Y Z