Song name
# A B C D E F G H I J K L M N O P Q R S T U V W X Y Z

Lamb Of God - Reclamation tab

Still not finished, but its updated and more accurate with a few more parts added

Tabbed by:Rocky


0:17

d#----------------------------------------------------------|
a#---------3------------------------------------------------|
f#-----2-----2--------------2-------------------------------|
c#-------0----------------------------6-6-------------------| 
g#-0~---------0-1p0-1p0-----------3-3-3-3-------------------|
c#-0~---------0-1p0-1p0-0-0~--0-0-3-3-3-3-------------------|(Acoustic)

This played with the acoustic
0:38

d#------------------------------------------------------------|
a#------3-----------------------------------------------------|
f#---2---2--------------2-------------------------------------|
c#----0--------------------------6-6--------------------------| 
g#---------------------------3-3-3-3--------------------------|
c#-0~-------0-1-0-1-0-0---0--3-3-3-3--------------------------|(Electric clean)

The 6es bend slightly 

0:54

Add the distortion..
d#-----------------------------------------------------------------|
a#-----------------------------------------------------------------|
f#-----------------------------------------------------------------|
c#--------------7----------7-7---------7-7---------7-7-7-7-7-7---7-|
g#-3-3-3-3-3-3--5----------3/5---------3/5---------5h6-6-6-6-6---5-|
c#-3-3-3-3-3-3----0-0-0-0-0---0-0-0-0-0---0-0-0-0-0----------------|

   . . . . . .    . . . . .   . . . . .   . . . . .


1:11

d#----------------------------------------------------------|
a#----------------------------------------------------------|
f#---------7~-----------------------------------------------|
c#---------7~------------------------6-6-6------------------|
d#-0~--0---5~--0-1-0-1-0--0----3-3-3-3-3-3------------------|
c#-0~--0-------0-1-0-1-0--0-0--3-3-3-3-3-3------------------|




After playing the riff at 0:54 and 1:11  then It goes clean electric with the intro riff,
Then it goes back to the riff at 0:54 then..
                           .

1:53

Riff 1

d#-----------------------------------------------|
a#-----------------------------------------------|
f#-7-7---7-7---7-7---7-7---7-7---7-7---7-7---7-7-|
c#-7-7-x-7-7-x-7-7-x-7-7-x-7-7-x-7-7-x-7-7-x-7-7-|
d#-4-4-x-4-4-x-4-4-x-4-4-x-5-5-x-5-5-x-5-5-x-5-5-|
c#-4-4-x-4-4-x-4-4-x-4-4-x-5-5-x-5-5-x-5-5-x-5-5-|


1:57

Riff 1a       

d#--------------------------------------------------|
a#--------------------------------------------------|
f#---5-5-------------------5-5----------------------|
c#--7-7-7-------------------7-7---------------------|
d#-0----------------------0-------------------------|
c#-------1p0-0-0-0-0-0-0--------1p0-0-0-0-0-0-------|
             . . . . . .            . . . . .

Then back to riff 1 then..

2:05

Riff 1b

d#------------------------------------------------------------|
a#------------------------------------------------------------|
f#-------------------------------9-9-9-9-9-------9-9-9-9-9----|
c#-7b8b7-6-6-6-6-6---------------7-7-7-7-7-------7-7-7-7-7----|
d#-------0-0-0-0-0---------------5-5-5-5-5-------7-7-7-7-7----|
c#-------0-0-0-0-0---0-0-0-0-0-0-----------0-0-0-7-7-7-7-7----|
                     . . . . . .           . . .

Again back to riff 1, Then riff 1a, Then riff 1 again, 
then this is right after riff 1 right before the clean electric into again.

2:13

d#-------------|
a#-------------|
f#-------------|
c#-------------|
d#-3-1-0~~~----|
c#-3-1-0~~~----|
   . .
After the clean electric, it follows everything just tabbed, 
And right after this ending right here at 2:13 you go..

3:29

Breakdown

d#---------------------------------------|
a#---------------------------------------|
f#---------------------------------------|
c#---------------------------------------|
d#---------------------------------------|
c#-000-0000-00-0000-00-000-0000-00-------|
   ... .... .. .... .. ... .... ..
Listen for timing, and improvise or whatever you want, thats 
just the general idea.
After that Pickslide and then play this.

3:57

d#------------------------------------------|
a#------------------------------------------|
f#------------------------------------------|
c#------------------------------------------|
d#-5--------3\5-----6p5--------8p5---6-5-6-5|
c#---000000-----000-----000000----000-------|
     ......     ...     ......    ...

This Harmonizes with the upper riff 

4:14

d#---------------------------------------------------|
a#---------------------------------------------------|
f#---------------------------------------------------|
c#-5------3\5---6p5------6p5-5-3-5-3-----------------|
d#---------------------------------------------------|
c#--000000---000---000000----------------------------|
    ......   ...   ......
Tap to rate this tab
# A B C D E F G H I J K L M N O P Q R S T U V W X Y Z