Song name
# A B C D E F G H I J K L M N O P Q R S T U V W X Y Z

Lamb Of God - Ghost Walking tab

----------------------------------------------------------------------------
                              Ghost Walking
                               Lamb of God
----------------------------------------------------------------------------

Hey. This song is very fun to play on the guitar, and the solo, which will be difficult 
if you are a beginner, is very interesting. I did the best I could, and my cover will be 
based off of this tab. So if you’ve got any problems, just check out the cover. Enjoy!

Username: dkm817 (same on X box live)
Youtube Cover: http://www.youtube.com/watch?v=KNRJOs0sJfA
Email: guitardrums@rockfan.com

Guitar 1 Rhythmic (C# G# C# F# A# D#)
Guitar 2 Lead     (C# G# C# F# A# D#)
Guitar 3 Acoustic (C# F# B  E  G# C#)


Tab Guide...

===================================================================
(end of measures)

===================================================================
===================================================================
(end of parts)

===================================================================
===================================================================
===================================================================
(end of song)

(If there is a “continued” it is because the numbers could not
fit on 1 line.)


Intro 1

Guitar 3
C#-------------|
G#-------------|
E -------------|
B -x-12\~~~~~~-|
F#-x-12\~~~~~~-|
C#-x-12\~~~~~~-|

===================================================================

Guitar 3
C#-----------------------------------------------------------------|
G#-----------------------------------------------------------------|
E -----------------------------------------------------------------|
B -------------------------2-5-------------------------------------|
F#-----------7-5-0-7~b~r-------------------------------------------|
C#-0~~~-0~~~-------------0-----3~~~~~~-x-x-6---5~~~~~~-5-5-5-6-3-5-|

===================================================================

Guitar 3
C#-----------------------------------------------------------------|
G#-----------------------------------------------------------------|
E -----------------------------------------------------------------|
B -------------------------2-5-------------------------------------|
F#-----------7-5-0-7~b~r-------------------------------------------|
C#-0~~~-0~~~-------------0-----3~~~~~~-x-x-6---5~~~~-6-5-0-6-5-3-5-|

===================================================================

Guitar 3
C#-----------------------------------------------------------------|
G#-----------------------------------------------------------------|
E -----------------------------------------------------------------|
B -------------------------2-5-------------------------------------|
F#-----------7-5-0-7~b~r-------------------------------------------|
C#-0~~~-0~~~-------------0-----3~~~~~~-x-x-6---5~~~~~~-5-5-5-6-5-3-|

===================================================================

Guitar 1 & 2
D#-----------------------------------------------------------------|
A#-----------------------------------------------------------------|
F#-----------------------------------------------------------------|
C#---------------------------------------------------0---12\~~~~~~-|
G#---------------------------------------------------0---12\~~~~~~-|
C#---------------------------------------------------0---12\~~~~~~-|
pm                                                   .

Guitar 3
C#-----------------------------------------------------------------|
G#-----------------------------------------------------------------|
E -----------------------------------------------------------------|
B -----------------------------------------------------------------|
F#-----------------------------------------------------------------|
C#-6-5-0-6-5-0-6-5-0-6-5-0-6-5-3-5-6-5-0-6-5-0-6-5-----------------|

===================================================================
===================================================================


Intro 2

Guitar 1 & 2
D#-----------------------------------------------------------------|
A#-----------------------------------------------------------------|
F#-----------------------------------------------------------------|
C#-----------------------------------------------------------------|
G#-----------------------------------------------------------------|
C#-0-1-0~~~~~~-1-0-1-3-4-5-4-3-0-1-0-1-0~~~~~~-1-0-1-3-4-5-4-3-0-1-|

===================================================================

Guitar 1 & 2
D#-----------------------------------------------------------------|
A#-----------------------------------------------------------------|
F#-----------------------------------------------------------------|
C#-----------------------------------------------------------------|
G#-------------------------------------------------3-3-3-3-3-3-3-3-|
C#-0-1-0~~~~~~-1-0-1-3-4-5-4-3-0-1-3-3-3-3-3-3-3-3-----------------|

===================================================================

Guitar 1 & 2
D#-----------------------------------------------------------------|
A#-----------------------------------------------------------------|
F#-----------------------------------------------------------------|
C#-----------------------------------------------------------------|
G#-----------------------------------------------------------------|
C#-0-1-0~~~~~~-1-0-1-3-4-5-4-3-0-1-0-1-0~~~~~~-1-0-1-3-4-5-4-3-0-1-|

===================================================================

Guitar 1 & 2
D#-----------------------------------------------------------------|
A#-----------------------------------------------------------------|
F#-----------------------------------------------------------------|
C#---------------------------------3~~~~~~~~~~~~~~~~~~~~-12\~~~~~~-|
G#---------------------------------3~~~~~~~~~~~~~~~~~~~~-12\~~~~~~-|
C#-0-1-0~~~~~~-1-0-1-3-4-5-4-3-0-1-3~~~~~~~~~~~~~~~~~~~~-12\~~~~~~-|

===================================================================
===================================================================


Verse 1

(x2)

Guitar 1 & 2
D#-----------------------------------------------------------------|
A#-----------------------------------------------------------------|
F#-----------------------------------------------------------------|
C#-----------------------------------------------------------------|
G#-----------------------------------------------------------------|
C#-0---0---0---0---0---0---0---0---0-0-0---0---0---0---0---0---0---|
pm     .   .   .   .   .   .   .   . . .   .   .   .   .   .   .

===================================================================

Guitar 1
D#-----------------------------------------------------------------|
A#-----------------------------------------------------------------|
F#-----------------------------------------------------------------|
C#-----------------------------------------------------------------|
G#-----------------------------------------------------------------|
C#-0---3---0---0---5---0---0---6---0---0---5---0---3---5---3~~~~~~-|
pm .       .   .       .   .       .   .       .

Guitar 2
D#-----------------------------------------------------------------|
A#-----------------------------------------------------------------|
F#-----------------------------------------------------------------|
C#-----------------------------------------------------------------|
G#---------------------------------------------------------8*~~~~~-|
C#-0---3---0---0---5---0---0---6---0---0---5---0---3---5-----------|
pm .       .   .       .   .       .   .       .

===================================================================

Guitar 1 & 2
D#-----------------------------------------------------------------|
A#-----------------------------------------------------------------|
F#-----------------------------------------------------------------|
C#-----------------------------------------------------------------|
G#-----------------------------------------------------------------|
C#-0---0---0---0---0---0---0---0---0-0-0---0---0---0---0---0---0---|
pm     .   .   .   .   .   .   .   . . .   .   .   .   .   .   .

===================================================================

Guitar 1 & 2
D#-----------------------------------------------------------------|
A#-----------------------------------------------------------------|
F#-----------------------------------------------------------------|
C#-----------------------------------------------------------------|
G#-5---------------8---------------5---3---------------------------|
C#-----8---7---5-------10--8---7-----------6---5---3---6---3---5---|
pm     .   .   .       .   .   .

===================================================================
===================================================================


Pre Chorus

Guitar 1 & 2
D#-----------------------------------------------------------------|
A#-----------------------------------------------------------------|
F#-----------------------------------------------------------------|
C#-----------------------------------------------------------------|
G#-----------------------------------------------------------------|
C#-3-0-2-2-2-2-3-0-2-2-2-2-3-0-2-2-2-2-3-0-2-2-2-2-3-3-3-3-5-5-5-5-|

===================================================================

Guitar 1 & 2
D#-----------------------------------------------------------------|
A#-----------------------------------------------------------------|
F#-----------------------------------------------------------------|
C#-----------------------------------------------------------------|
G#-----------------------------------------------------------------|
C#-3-0-2-2-2-2-3-0-2-2-2-2-3-0-2-2-2-2-3-0-2-3-5-2-5-3-2-0-2-3-5-6-|

===================================================================

Guitar 1 & 2
D#-----------------------------------------------------------------|
A#-----------------------------------------------------------------|
F#-----------------------------------------------------------------|
C#-----------------------------------------------------------------|
G#-----------------------------------------------------------------|
C#-3-0-2-2-2-2-3-0-2-2-2-2-3-0-2-2-2-2-3-0-2-2-2-2-3-3-3-3-5-5-5-5-|

===================================================================

Guitar 1
D#-----------------------------------------------------------------|
A#-----------------------------------------------------------------|
F#-----------------------------------------------------------------|
C#-----------------------------------------------------------------|
G#-----------------------------------------------------------------|
C#-3-0-2-2-2-2-3-0-2-2-2-2-3-0-2-2-2-2-3-0-2-2-2-2-----------------|

Guitar 2
D#-----------------------------------------------------------------|
A#-----------------------------------------------------------------|
F#-----------------------------------------------------------------|
C#-------------------------------------------------7*~~~-----------|
G#-------------------------------------------------------5-3-------|
C#-3-0-2-2-2-2-3-0-2-2-2-2-3-0-2-2-2-2-3-0-2-2-2-2-----------6-5-3-|
pm                                                           . . .

===================================================================
===================================================================


Chorus

Guitar 1 & 2
D#-----------------------------------------------------------------|
A#-----------------------------------------------------------------|
F#-----------------------------------------------------------------|
C#-----------------------------------------------------------------|
G#-------------------------5-8-------------------------------------|
C#-0~~-0~~-12-10-0-12b~r-0-----3~~~~~~-3-3-6---5~~~~~~-5-5-5-6-3-5-|
pm                                     . .

===================================================================

Guitar 1 & 2
D#-----------------------------------------------------------------|
A#-----------------------------------------------------------------|
F#-----------------------------------------------------------------|
C#-----------------------------------------------------------------|
G#-------------------------5-8-------------------------------------|
C#-0~~-0~~-12-10-0-12b~r-0-----3~~~~~~-3-3-6---5~~~~-6-5-0-6-5-3-5-|
pm                                     . .

===================================================================

Guitar 1 & 2
D#-----------------------------------------------------------------|
A#-----------------------------------------------------------------|
F#-----------------------------------------------------------------|
C#-----------------------------------------------------------------|
G#-------------------------5-8-------------------------------------|
C#-0~~-0~~-12-10-0-12b~r-0-----3~~~~~~-3-3-6---5~~~~~~-5-5-5-6-3-5-|
pm                                     . .

===================================================================

Guitar 1 & 2
D#-----------------------------------------------------------------|
A#-----------------------------------------------------------------|
F#-----------------------------------------------------------------|
C#-------------------------------------------------7*~~~-----------|
G#-------------------------------------------------------5-3-------|
C#-6-5-0-6-5-0-6-5-0-6-5-0-6-5-3-5-6-5-0-6-5-0-6-5-----------6-5-3-|
pm                                                           . . .

===================================================================
===================================================================


Bridge

Guitar 1 & 2
D#-----------------------------------------------------------------|
A#-----------------------------------------------------------------|
F#-----------------------------------------------------------------|
C#-----------------------------------------------------------------|
G#-----------------------------------------------------------------|
C#-0-1-0~~~~~~-1-0-1-3-4-5-4-3-0-1-0-1-0~~~~~~-1-0-1-3-4-5-4-3-0-1-|

===================================================================

Guitar 1 & 2
D#-----------------------------------------------------------------|
A#-----------------------------------------------------------------|
F#-----------------------------------------------------------------|
C#---------------------------------3~~~~~~~~~~~~~~~~~~~~-12\~~~~~~-|
G#---------------------------------3~~~~~~~~~~~~~~~~~~~~-12\~~~~~~-|
C#-0-1-0~~~~~~-1-0-1-3-4-5-4-3-0-1-3~~~~~~~~~~~~~~~~~~~~-12\~~~~~~-|

===================================================================
===================================================================


Verse 1

(x2)

Guitar 1 & 2
D#-----------------------------------------------------------------|
A#-----------------------------------------------------------------|
F#-----------------------------------------------------------------|
C#-----------------------------------------------------------------|
G#-----------------------------------------------------------------|
C#-0---0---0---0---0---0---0---0---0-0-0---0---0---0---0---0---0---|
pm     .   .   .   .   .   .   .   . . .   .   .   .   .   .   .

===================================================================

Guitar 1
D#-----------------------------------------------------------------|
A#-----------------------------------------------------------------|
F#-----------------------------------------------------------------|
C#-----------------------------------------------------------------|
G#-----------------------------------------------------------------|
C#-0---3---0---0---5---0---0---6---0---0---5---0---3---5---3~~~~~~-|
pm .       .   .       .   .       .   .       .

Guitar 2
D#-----------------------------------------------------------------|
A#-----------------------------------------------------------------|
F#-----------------------------------------------------------------|
C#-----------------------------------------------------------------|
G#---------------------------------------------------------8*~~~~~-|
C#-0---3---0---0---5---0---0---6---0---0---5---0---3---5-----------|
pm .       .   .       .   .       .   .       .

===================================================================

Guitar 1 & 2
D#-----------------------------------------------------------------|
A#-----------------------------------------------------------------|
F#-----------------------------------------------------------------|
C#-----------------------------------------------------------------|
G#-----------------------------------------------------------------|
C#-0---0---0---0---0---0---0---0---0-0-0---0---0---0---0---0---0---|
pm     .   .   .   .   .   .   .   . . .   .   .   .   .   .   .

===================================================================

Guitar 1 & 2
D#-----------------------------------------------------------------|
A#-----------------------------------------------------------------|
F#-----------------------------------------------------------------|
C#-----------------------------------------------------------------|
G#-5---------------8---------------5---3---------------------------|
C#-----8---7---5-------10--8---7-----------6---5---3---6---3---5---|
pm     .   .   .       .   .   .

===================================================================
===================================================================


Verse 2

Guitar 1 & 2
D#-----------------------------------------------------------------|
A#-----------------------------------------------------------------|
F#-----------------------------------------------------------------|
C#-----------------------------------------------------------------|
G#-----------------------------------------------------------------|
C#-0---0---0---0---0---0---0---0---0-0-0---------------------------|
pm     .   .   .   .   .   .   .   . . .

===================================================================

Guitar 1 & 2
D#-----------------------------------------------------------------|
A#-----------------------------------------------------------------|
F#-----------------------------------------------------------------|
C#-----------------------------------------------------------------|
G#-----------------------------------------------------------------|
C#-----3---0---0---5---0---0---6---0---0---5---0---3---5---3~~~~~~-|
pm         .   .       .   .       .   .       .

===================================================================

Guitar 1 & 2
D#-----------------------------------------------------------------|
A#-----------------------------------------------------------------|
F#-----------------------------------------------------------------|
C#-----------------------------------------------------------------|
G#-----------------------------------------------------------------|
C#-0---0---0---0---0---0---0---0---0-0-0---------------------------|
pm     .   .   .   .   .   .   .   . . .

===================================================================

Guitar 1 & 2
D#-----------------------------------------------------------------|
A#-----------------------------------------------------------------|
F#-----------------------------------------------------------------|
C#-----------------------------------------------------------------|
G#-----------------------------------------------------------------|
C#-----3---0---0---5---0---0---6---0---0---5---0---3---5---3~~~~~~-|
pm         .   .       .   .       .   .       .

===================================================================

Guitar 1 & 2
D#-----------------------------------------------------------------|
A#-----------------------------------------------------------------|
F#-----------------------------------------------------------------|
C#-----------------------------------------------------------------|
G#-----------------------------------------------------------------|
C#-0---0---0---0---0---0---0---0---0-0-0---------------------------|
pm     .   .   .   .   .   .   .   . . .

===================================================================

Guitar 1 & 2
D#-----------------------------------------------------------------|
A#-----------------------------------------------------------------|
F#-----------------------------------------------------------------|
C#-----------------------------------------------------------------|
G#-----------------------------------------------------------------|
C#-----3---0---0---5---0---0---6---0---0---5---0---3---5---3~~~~~~-|
pm         .   .       .   .       .   .       .

===================================================================

Guitar 1 & 2
D#-----------------------------------------------------------------|
A#-----------------------------------------------------------------|
F#-----------------------------------------------------------------|
C#-----------------------------------------------------------------|
G#-----------------------------------------------------------------|
C#-0---0---0---0---0---0---0---0---0-0-0---------------------------|
pm     .   .   .   .   .   .   .   . . .

===================================================================

Guitar 1 & 2
D#-----------------------------------------------------------------|
A#-----------------------------------------------------------------|
F#-----------------------------------------------------------------|
C#-----------------------------------------------------------------|
G#-5---------------8---------------5---3---------------------------|
C#-----8---7---5-------10--8---7-----------6---5---3---6---3---5---|
pm     .   .   .       .   .   .

===================================================================
===================================================================


Pre Chorus

Guitar 1 & 2
D#-----------------------------------------------------------------|
A#-----------------------------------------------------------------|
F#-----------------------------------------------------------------|
C#-----------------------------------------------------------------|
G#-----------------------------------------------------------------|
C#-3-0-2-2-2-2-3-0-2-2-2-2-3-0-2-2-2-2-3-0-2-2-2-2-3-3-3-3-5-5-5-5-|

===================================================================

Guitar 1 & 2
D#-----------------------------------------------------------------|
A#-----------------------------------------------------------------|
F#-----------------------------------------------------------------|
C#-----------------------------------------------------------------|
G#-----------------------------------------------------------------|
C#-3-0-2-2-2-2-3-0-2-2-2-2-3-0-2-2-2-2-3-0-2-3-5-2-5-3-2-0-2-3-5-6-|

===================================================================

Guitar 1 & 2
D#-----------------------------------------------------------------|
A#-----------------------------------------------------------------|
F#-----------------------------------------------------------------|
C#-----------------------------------------------------------------|
G#-----------------------------------------------------------------|
C#-3-0-2-2-2-2-3-0-2-2-2-2-3-0-2-2-2-2-3-0-2-2-2-2-3-3-3-3-5-5-5-5-|

===================================================================

Guitar 1
D#-----------------------------------------------------------------|
A#-----------------------------------------------------------------|
F#-----------------------------------------------------------------|
C#-----------------------------------------------------------------|
G#-----------------------------------------------------------------|
C#-3-0-2-2-2-2-3-0-2-2-2-2-3-0-2-2-2-2-3-0-2-2-2-2-----------------|

Guitar 2
D#-----------------------------------------------------------------|
A#-----------------------------------------------------------------|
F#-----------------------------------------------------------------|
C#-------------------------------------------------7*~~~-----------|
G#-------------------------------------------------------5-3-------|
C#-3-0-2-2-2-2-3-0-2-2-2-2-3-0-2-2-2-2-3-0-2-2-2-2-----------6-5-3-|
pm                                                           . . .

===================================================================
===================================================================


Chorus

Guitar 1 & 2
D#-----------------------------------------------------------------|
A#-----------------------------------------------------------------|
F#-----------------------------------------------------------------|
C#-----------------------------------------------------------------|
G#-------------------------5-8-------------------------------------|
C#-0~~-0~~-12-10-0-12b~r-0-----3~~~~~~-3-3-6---5~~~~~~-5-5-5-6-3-5-|
pm                                     . .

===================================================================

Guitar 1 & 2
D#-----------------------------------------------------------------|
A#-----------------------------------------------------------------|
F#-----------------------------------------------------------------|
C#-----------------------------------------------------------------|
G#-------------------------5-8-------------------------------------|
C#-0~~-0~~-12-10-0-12b~r-0-----3~~~~~~-3-3-6---5~~~~-6-5-0-6-5-3-5-|
pm                                     . .

===================================================================

Guitar 1 & 2
D#-----------------------------------------------------------------|
A#-----------------------------------------------------------------|
F#-----------------------------------------------------------------|
C#-----------------------------------------------------------------|
G#-------------------------5-8-------------------------------------|
C#-0~~-0~~-12-10-0-12b~r-0-----3~~~~~~-3-3-6---5~~~~~~-5-5-5-6-3-5-|
pm                                     . .

===================================================================

Guitar 1 & 2
D#-----------------------------------------------------------------|
A#-----------------------------------------------------------------|
F#-----------------------------------------------------------------|
C#-------------------------------------------------7*~~~-----------|
G#-------------------------------------------------------5-3-------|
C#-6-5-0-6-5-0-6-5-0-6-5-0-6-5-3-5-6-5-0-6-5-0-6-5-----------6-5-3-|
pm                                                           . . .

===================================================================
===================================================================


Bridge

Guitar 1 & 2
D#-----------------------------------------------------------------|
A#-----------------------------------------------------------------|
F#-----------------------------------------------------------------|
C#-----------------------------------------------------------------|
G#-----------------------------------------------------------------|
C#-0-1-0~~~~~~-1-0-1-3-4-5-4-3-0-1-0-1-0~~~~~~-1-0-1-3-4-5-4-3-0-1-|

===================================================================

Guitar 1 & 2
D#-----------------------------------------------------------------|
A#-----------------------------------------------------------------|
F#-----------------------------------------------------------------|
C#---------------------------------3~~~~~~~~~~~~~~~~~~~~-12\~~~~~~-|
G#---------------------------------3~~~~~~~~~~~~~~~~~~~~-12\~~~~~~-|
C#-0-1-0~~~~~~-1-0-1-3-4-5-4-3-0-1-3~~~~~~~~~~~~~~~~~~~~-12\~~~~~~-|

===================================================================
===================================================================


Break Off

Guitar 1
D#-----------------------------------------------------------------|
A#-----------------------------------------------------------------|
F#-----------------------------------------------------------------|
C#-----------------------------------------------------------------|
G#-----------------------------------------------------------------|
C#-10--12--0---12--0---0---12--0---0---12--0---0---12--0---0---0---|

===================================================================
===================================================================


Interlude

(x2)

Guitar 1 & 2
D#-----------------------------------------------------------------|
A#-----------------------------------------------------------------|
F#-----------------------------------------------------------------|
C#-----------------------------------------------------------------|
G#-----------------------------------------------------------------|
C#-10--12--0---12--0---0---12--0---0---12--0---0---12--0---0---0---|

===================================================================

Guitar 1 & 2
D#-----------------------------------------------------------------|
A#-----------------------------------------------------------------|
F#-----------------------------------------------------------------|
C#-----------------------------------------------------------------|
G#-----------------------------------------------------------------|
C#-8---10--10--10--10--0---10--0---0---10--0---0---10--0---0---0---|

===================================================================

Guitar 1 & 2
D#-----------------------------------------------------------------|
A#-----------------------------------------------------------------|
F#-----------------------------------------------------------------|
C#-----------------------------------------------------------------|
G#-----------------------------------------------------------------|
C#-7---8---8---8---8---0---8---0---0---8---0---0---8---0---0---0---|

===================================================================

Guitar 1 & 2
D#-----------------------------------------------------------------|
A#-----------------------------------------------------------------|
F#-----------------------------------------------------------------|
C#-----------------------------------------------------------------|
G#-----------------------------------------------------------------|
C#-5---7---7---7---7---0---7---0---0---7---0---0---3---5---5---5---|

===================================================================
===================================================================


Guitar Solo

Guitar 1
D#-----------------------------------------------------------------|
A#-----------------------------------------------------------------|
F#-----------------------------------------------------------------|
C#-----------------------------------------------------------------|
G#-----------------------------------------------------------------|
C#-10--12--0---12--0---0---12--0---0---12--0---0---12--0---0---0---|

Guitar 2
D#-22-18-17----------------------17-18-20-18-17----17--15--13------|
A#----------18----------------18----------------20-------------17--|
F#-------------19----------19--------------------------------------|
C#----------------------19-----------------------------------------|
G#-------------------17--------------------------------------------|
C#-----------------------------------------------------------------|

===================================================================

Guitar 1
D#-----------------------------------------------------------------|
A#-----------------------------------------------------------------|
F#-----------------------------------------------------------------|
C#-----------------------------------------------------------------|
G#-----------------------------------------------------------------|
C#-8---10--10--10--10--0---10--0---0---10--0---0---10--0---0---0---|

Guitar 2
D#-15--13--12------------------------------------------------------|
A#-------------15--17--15--14------14------------------------------|
F#-----------------------------15------15--14--12--15--14--12--10--|
C#-----------------------------------------------------------------|
G#-----------------------------------------------------------------|
C#-----------------------------------------------------------------|

===================================================================

Guitar 1
D#-----------------------------------------------------------------|
A#-----------------------------------------------------------------|
F#-----------------------------------------------------------------|
C#-----------------------------------------------------------------|
G#-----------------------------------------------------------------|
C#-7---8---8---8---8---0---8---0---0---8---0---0---8---0---0---0---|

Guitar 2
D#-----------------------------------------------------12--13--15--|
A#-----------------------------------------11--14--15--------------|
F#-12--10--9-------------------10--12--14--------------------------|
C#-------------12--11--12--14--------------------------------------|
G#-----------------------------------------------------------------|
C#-----------------------------------------------------------------|

===================================================================

Guitar 1
D#-----------------------------------------------------------------|
A#-----------------------------------------------------------------|
F#-----------------------------------------------------------------|
C#-----------------------------------------------------------------|
G#-----------------------------------------------------------------|
C#-5---7---7---7---7---0---7---0---0---7---0---0---3---5---5---5---|

Guitar 2
D#-17--15--13----------------------16b~~~~~~~~~~~~~~~~~~~~~~~~~~~~-|
A#-------------17--18--17--15--------------------------------------|
F#-----------------------------18----------------------------------|
C#-----------------------------------------------------------------|
G#-----------------------------------------------------------------|
C#-----------------------------------------------------------------|

===================================================================

Guitar 1
D#-----------------------------------------------------------------|
A#-----------------------------------------------------------------|
F#-----------------------------------------------------------------|
C#-----------------------------------------------------------------|
G#-----------------------------------------------------------------|
C#-10--12--0---12--0---0---12--0---0---12--0---0---12--0---0---0---|

Guitar 2
D#-10~~~~~~~~~~~~~~~~~~~~~-10*~~~~~~~~~~~~~~~~~~~~-----------------|
A#-------------------------------------------------15----17----18--|
F#-----------------------------------------------------------------|
C#-----------------------------------------------------------------|
G#-----------------------------------------------------------------|
C#-----------------------------------------------------------------|

===================================================================

Guitar 1
D#-----------------------------------------------------------------|
A#-----------------------------------------------------------------|
F#-----------------------------------------------------------------|
C#-----------------------------------------------------------------|
G#-----------------------------------------------------------------|
C#-8---10--10--10--10--0---10--0---0---10--0---0---10--0---0---0---|

Guitar 2
D#-----------------------------------------------------------------|
A#-17h18p17p15-17p15p13-15p13p12-----------------------------------|
F#-------------------------------14p12~~~~~~~~~~~~-14~~~~~~~~~~~~~-|
C#-----------------------------------------------------------------|
G#-----------------------------------------------------------------|
C#-----------------------------------------------------------------|

===================================================================

Guitar 1
D#-----------------------------------------------------------------|
A#-----------------------------------------------------------------|
F#-----------------------------------------------------------------|
C#-----------------------------------------------------------------|
G#-----------------------------------------------------------------|
C#-5---7---7---7---7---0---7---0---0---7---0---0---3---5---5---5---|

Guitar 2
D#-----------------------------------------10~~~~~~~~~-10~~~~~~~~~-|
A#---------------------------------------------13~~~~~~~~~-13~~~~~-|
F#-12--10--12--13--12--10--12--10--12--14----------12~~~~~~~~~-12~-|
C#-----------------------------------------------------------------|
G#-----------------------------------------------------------------|
C#-----------------------------------------------------------------|

===================================================================

Guitar 1
D#-----------------------------------------------------------------|
A#-----------------------------------------------------------------|
F#-----------------------------------------------------------------|
C#-----------------------------------------------------------------|
G#-----------------------------------------------------------------|
C#-5---7---7---7---7---0---7---0---0---7---0---0---3---5---5---5---|

Guitar 2
D#-----------------------------------------------------------------|
A#---------------------------------6~~~~~~~~~~~~~~~~~~~~~~~~~~~~~~-|
F#-10p-7---10p-7-------------------7~~~~~~~~~~~~~~~~~~~~~~~~~~~~~~-|
C#-----------------10p-7-------7-----------------------------------|
G#-------------------------10--------------------------------------|
C#-----------------------------------------------------------------|

===================================================================

Guitar 1
D#-----------------------------------------------------------------|
A#-----------------------------------------------------------------|
F#-----------------------------------------------------------------|
C#-----------------------------------------------------------------|
G#-----------------------------------------------------------------|
C#-0---0---0---0---0---0---0---0---0-0-0---------------------------|
pm     .   .   .   .   .   .   .   . . .

Guitar 2
D#-----------------------------------------------------------------|
A#-------------------------------------------------10-9------------|
F#-----------------10-9------------9-10-12-9-10-12------12-10-9-10-|
C#-9-10-12-9-10-12------12-10-9-10---------------------------------|
G#-----------------------------------------------------------------|
C#-----------------------------------------------------------------|

===================================================================

Guitar 1
D#-----------------------------------------------------------------|
A#-----------------------------------------------------------------|
F#-----------------------------------------------------------------|
C#-----------------------------------------------------------------|
G#-----------------------------------------------------------------|
C#-----3---0---0---5---0---0---6---0---0---5---0---3---5---3~~~~~~-|
pm         .   .       .   .       .   .       .

Guitar 2
D#-------------------------------------13-12-10----------15-13-12----------|
A#-------------------13-12-10-------------------13-12-10----------15-13-12-|
F#-13-12-10-13-12-10----------13-12-10-------------------------------------|
C#-------------------------------------------------------------------------|
G#-------------------------------------------------------------------------|
C#-------------------------------------------------------------------------|

===================================================================

Guitar 1
D#-----------------------------------------------------------------|
A#-----------------------------------------------------------------|
F#-----------------------------------------------------------------|
C#-----------------------------------------------------------------|
G#-----------------------------------------------------------------|
C#-0---0---0---0---0---0---0---0---0-0-0---------------------------|
pm     .   .   .   .   .   .   .   . . .

Guitar 2
D#-16~~~~~~b~~~~~~~~~~~~~~~~~~~~~~~~~~~~~~-13--17--13--12--13p-12--|
A#-----------------------------------------------------------------|
F#-----------------------------------------------------------------|
C#-----------------------------------------------------------------|
G#-----------------------------------------------------------------|
C#-----------------------------------------------------------------|

===================================================================

Guitar 1
D#-----------------------------------------------------------------|
A#-----------------------------------------------------------------|
F#-----------------------------------------------------------------|
C#-----------------------------------------------------------------|
G#-----------------------------------------------------------------|
C#-----3---0---0---5---0---0---6---0---0---5---0---3---5---3~~~~~~-|
pm         .   .       .   .       .   .       .

Guitar 2
D#-----------------------------------------------------------------|
A#-13p-12--13p-12------12--13--16~~~~~~~~~~~~~~~~~~~~~~~~~~~~~~~~~-|
F#-----------------14----------------------------------------------|
C#-----------------------------------------------------------------|
G#-----------------------------------------------------------------|
C#-----------------------------------------------------------------|

===================================================================

Guitar 1
D#-----------------------------------------------------------------|
A#-----------------------------------------------------------------|
F#-----------------------------------------------------------------|
C#-----------------------------------------------------------------|
G#-----------------------------------------------------------------|
C#-0---0---0---0---0---0---0---0---0-0-0---------------------------|
pm     .   .   .   .   .   .   .   . . .

Guitar 2
D#-----------------------------------------------------------------|
A#---------------------------------6h--8p--6-----------------------|
F#-10p-7-------10p-7-------10p-7---------------7---10p-7-----------|
C#---------0-----------0-----------------------------------10--12--|
G#-----------------------------------------------------------------|
C#-----------------------------------------------------------------|
pm         .           .                                   .   .

===================================================================

Guitar 1
D#-----------------------------------------------------------------|
A#-----------------------------------------------------------------|
F#-----------------------------------------------------------------|
C#-----------------------------------------------------------------|
G#-----------------------------------------------------------------|
C#-----3---0---0---5---0---0---6---0---0---5---0---3---5---3~~~~~~-|
pm         .   .       .   .       .   .       .

Guitar 2
D#-----------------------------------------------------------------|
A#---------------------------------9~~~~~~~~~~~~~~~~~~~~~~~~~~~~~~-|
F#-------------------------9---10----------------------------------|
C#-10--9-------9---10--12------------------------------------------|
G#---------12------------------------------------------------------|
C#-----------------------------------------------------------------|
pm .   .   .   .   .   .   .   .

===================================================================

Guitar 1
D#-----------------------------------------------------------------|
A#-----------------------------------------------------------------|
F#-----------------------------------------------------------------|
C#-----------------------------------------------------------------|
G#-----------------------------------------------------------------|
C#-0---0---0---0---0---0---0---0---0-0-0---------------------------|
pm     .   .   .   .   .   .   .   . . .

Guitar 2
D#-10~~~~~~b~~~~~~~~~~~~~~~~~~~~~----------------------------------|
A#-13~~~~~~b~~~~~~~~~~~~~~~~~~~~~-t15p10p9p-8t15p10p9p8-t15p10p9p8-|
F#-----------------------------------------------------------------|
C#-----------------------------------------------------------------|
G#-----------------------------------------------------------------|
C#-----------------------------------------------------------------|

===================================================================

Guitar 1
D#-----------------------------------------------------------------|
A#-----------------------------------------------------------------|
F#-----------------------------------------------------------------|
C#-----------------------------------------------------------------|
G#-5---------------8---------------5---3---------------------------|
C#-----8---7---5-------10--8---7-----------6---5---3---6---3---5---|
pm     .   .   .       .   .   .

Guitar 2
D#----------------------------------16~~~~~~b~~~~~~~~~~~~~~~~~~~~~-|
A#-t15p10p9p-8t15p10p9p8-t15p10p9p8--------------------------------|
F#-----------------------------------------------------------------|
C#-----------------------------------------------------------------|
G#-----------------------------------------------------------------|
C#-----------------------------------------------------------------|

===================================================================
===================================================================


Pre Chorus

Guitar 1 & 2
D#-----------------------------------------------------------------|
A#-----------------------------------------------------------------|
F#-----------------------------------------------------------------|
C#-----------------------------------------------------------------|
G#-----------------------------------------------------------------|
C#-3-0-2-2-2-2-3-0-2-2-2-2-3-0-2-2-2-2-3-0-2-2-2-2-3-3-3-3-5-5-5-5-|

===================================================================

Guitar 1 & 2
D#-----------------------------------------------------------------|
A#-----------------------------------------------------------------|
F#-----------------------------------------------------------------|
C#-----------------------------------------------------------------|
G#-----------------------------------------------------------------|
C#-3-0-2-2-2-2-3-0-2-2-2-2-3-0-2-2-2-2-3-0-2-3-5-2-5-3-2-0-2-3-5-6-|

===================================================================

Guitar 1 & 2
D#-----------------------------------------------------------------|
A#-----------------------------------------------------------------|
F#-----------------------------------------------------------------|
C#-----------------------------------------------------------------|
G#-----------------------------------------------------------------|
C#-3-0-2-2-2-2-3-0-2-2-2-2-3-0-2-2-2-2-3-0-2-2-2-2-3-3-3-3-5-5-5-5-|

===================================================================

Guitar 1
D#-----------------------------------------------------------------|
A#-----------------------------------------------------------------|
F#-----------------------------------------------------------------|
C#-----------------------------------------------------------------|
G#-----------------------------------------------------------------|
C#-3-0-2-2-2-2-3-0-2-2-2-2-3-0-2-2-2-2-3-0-2-2-2-2-----------------|

Guitar 2
D#-----------------------------------------------------------------|
A#-----------------------------------------------------------------|
F#-----------------------------------------------------------------|
C#-------------------------------------------------7*~~~-----------|
G#-------------------------------------------------------5-3-------|
C#-3-0-2-2-2-2-3-0-2-2-2-2-3-0-2-2-2-2-3-0-2-2-2-2-----------6-5-3-|
pm                                                           . . .

===================================================================
===================================================================


Chorus

Guitar 1 & 2
D#-----------------------------------------------------------------|
A#-----------------------------------------------------------------|
F#-----------------------------------------------------------------|
C#-----------------------------------------------------------------|
G#-------------------------5-8-------------------------------------|
C#-0~~-0~~-12-10-0-12b~r-0-----3~~~~~~-3-3-6---5~~~~~~-5-5-5-6-3-5-|
pm                                     . .

===================================================================

Guitar 1 & 2
D#-----------------------------------------------------------------|
A#-----------------------------------------------------------------|
F#-----------------------------------------------------------------|
C#-----------------------------------------------------------------|
G#-------------------------5-8-------------------------------------|
C#-0~~-0~~-12-10-0-12b~r-0-----3~~~~~~-3-3-6---5~~~~-6-5-0-6-5-3-5-|
pm                                     . .

===================================================================

Guitar 1 & 2
D#-----------------------------------------------------------------|
A#-----------------------------------------------------------------|
F#-----------------------------------------------------------------|
C#-----------------------------------------------------------------|
G#-------------------------5-8-------------------------------------|
C#-0~~-0~~-12-10-0-12b~r-0-----3~~~~~~-3-3-6---5~~~~~~-5-5-5-6-3-5-|
pm                                     . .

===================================================================

Guitar 1 & 2
D#-----------------------------------------------------------------|
A#-----------------------------------------------------------------|
F#-----------------------------------------------------------------|
C#-------------------------------------------------7*~~~-----------|
G#-------------------------------------------------------5-3-------|
C#-6-5-0-6-5-0-6-5-0-6-5-0-6-5-3-5-6-5-0-6-5-0-6-5-----------6-5-3-|
pm                                                           . . .

===================================================================
===================================================================


Outro

(x4)

Guitar 1 & 2
D#-----------------------------------------------------------------|
A#-----------------------------------------------------------------|
F#-----------------------------------------------------------------|
C#-----------------------------------------------------------------|
G#-----------------------------------------------------------------|
C#-0-1-0~~~~~~-1-0-1-3-4-5-4-3-0-1-0-1-0~~~~~~-1-0-1-3-4-5-4-3-0-1-|

===================================================================

Guitar 1 & 2
D#-----------------------------------------------------------------|
A#-----------------------------------------------------------------|
F#-----------------------------------------------------------------|
C#-----------------------------------------------------------------|
G#-------------------------------------------------3-3-3-3-3-3-3-3-|
C#-0-1-0~~~~~~-1-0-1-3-4-5-4-3-0-1-3-3-3-3-3-3-3-3-----------------|

===================================================================
===================================================================
===================================================================

Tab Legend
h  -  hammer-on
p  -  pull-off
/  -  slide up
\  -  slide down
ps/-  pickslide up
ps\-  pickslide down
~  -  let ring
pm.-  palm mute
b  -  bend
r  -  return from bend
*  -  harmonic
x  -  dead note
^  -  Whammy bar
^\ -  Whammy bar (hold down)

That’s all of it! Hopefully this helped and check out my cover if you have any problems. 
Thanks, oh and one last thing... ROCK OUT!!!!
Tap to rate this tab
# A B C D E F G H I J K L M N O P Q R S T U V W X Y Z