Song name
# A B C D E F G H I J K L M N O P Q R S T U V W X Y Z

Lamb Of God - The Faded Line tab

Artist: Lamb Of God
Song: The Faded Line (track 4 from 'Ashes Of The Wake')

Tabbed by: laid_to_rest91   If you have any questions or corrections please comment this 
or email at this_is_sh@hotmail.com.

[INTRO] both guitars plays 8 times through
e|----------------------------------------|
B|----------------------------------------|
G|----------------------------------------|
D|----------------------------------------|
A|----------------------------------------|
D|--000-16-0-16-0-16-0-16-0-16-0-16-0-16-0|
pm  ***    *    *    *    *    *    *    *

e|----------------------------------------|
B|----------------------------------------|
G|----------------------------------------|
D|----------------------------------------|
A|----------------------------------------|
D|--000-15-0-15-0-15-0-15-0-15-0-15-0-15-0|
pm  ***    *    *    *    *    *    *    *

e|----------------------------------------|
B|----------------------------------------|
G|----------------------------------------|
D|----------------------------------------|
A|----------------------------------------|
D|--000-18-0-18-0-18-0-13-0-13-0-13-0-13-0|
pm  ***    *    *    *    *    *    *    *

e|-----------------------------------------|
B|-----------------------------------------|
G|-----------------------------------------|
D|-----------------------------------------|
A|-------------------16-13-12-17-12--------|
D|-000-12-0-12-0-12-0--------------15-16-13|
pm  ***    *    *   *

[BRIDGE] both guitars plays 2
e|------------------------------|------------------------------|
B|------------------------------|------------------------------|
G|------------------------------|------------------------------|
D|------------------------------|------------------------------|
A|--0===------------------------|------------------------------|
D|--0===000-000-000-000-000-000-|---000-000-000-000-000-000-000|
pm      *** *** *** *** *** ***     *** *** *** *** *** *** ***

e|------------------------------|------------------------------|
B|------------------------------|------------------------------|
G|------------------------------|------------------------------|
D|------------------------------|------------------------------|
A|--3===------------------------|------------------------------|
D|--3===333-333-333-333-333-333-|---333-333-333-444-44476306530|
pm      *** *** *** *** *** ***     *** *** *** *** ***********

[VERSE RIFF PART A] 1 guitar plays 2 times through then both for 2 times
e|------------------------------------------|
B|------------------------------------------|
G|------------------------------------------|
D|------------------------------------------|
A|------------------------------------------|
D|--0-0-0-0-0-0-0-0-0-0-0-0-1716151415141315|
pm  * * * * * * * * * * * *

then this follows
[VERSE RIFF PART B] both guitars 4 times played
e|------------------------------------------|
B|------------------------------------------|
G|------------------------------------------|
D|------------------------------------------|
A|------------------------------------------|
D|--0-000-000-000-000-000-001716151415141315|
pm  * *** *** *** *** *** **

[CHORUS RIFF] both guitars played once
e|-------------------------------|------------------------------------|
B|-------------------------------|------------------------------------|
G|-------------------------------|------------------------------------|
D|-----------------7-------------|------------5--7--------------------|
A|-------7--8--10-----10--8--7---|------7--8--------8-7h8h9h10-0h5h7h8|
D|--8-888-88-88--88-88--88-88-88-|-5-555-55-55-55-55------------------|
pm  * *** ** **  ** **  ** ** **   * *** ** ** ** **

then..
[VERSE RIFF PART B] both guitars 2 times played
e|------------------------------------------|
B|------------------------------------------|
G|------------------------------------------|
D|------------------------------------------|
A|------------------------------------------|
D|--0-000-000-000-000-000-001716151415141315|
pm  * *** *** *** *** *** **

then [CHORUS RIFF] is played again 1 more time


[BREAKDOWN PART A] starts with both guitars playing part A
2 times through
e|----------------------------------------------------|
B|----------------------------------------------------|
G|----------------------------------------------------|
D|----------------------------------------------------|
A|----------------------------------------------------|
D|--000000000---000000000---000000000---000011441144--|
pm  *********   *********   *********   ************

[BREAKDOWN PART B] 1 guitar only, other guitar continues to play part A
e|----------------------------------------------------|
B|----------------------------------------------------|
G|----------------------------------------------------|
D|----------------------------------------------------|
A|---------------------------~~-----------------------|
D|--------------12-13--12-13-16----12-12---13-13--10--|

e|----------------------------------------------------|
B|----------------------------------------------------|
G|----------------------------------------------------|
D|----------------------------------------------------|
A|---------------------------~~-----------------------|
D|--------------12-13--12-13-16----12-12---13-10------|

it plays ^^^^ 2 times then goes...
[BREAKDOWN PART C] plays 2 times
e|----------------------------------------------------|
B|----------------------------------------------------|
G|----------------------------------------------------|
D|---------------------------~~-----------------------|
A|--------------14-15--14-15-18----14-14---15-15--12--|
D|----------------------------------------------------|

e|----------------------------------------------------|
B|----------------------------------------------------|
G|----------------------------------------------------|
D|---------------------------~~-----------------------|
A|--------------14-15--14-15-18-----14-14---15-12-----|
D|----------------------------------------------------|

then...
[RIFF 1] plays 4 times
e|------------------------------------------------|
B|------------------------------------------------|
G|------------------------------------------------|
D|----5---5--4---4---4--1---1--1--0---0-----------|
A|----6---6--5---5---5--2---2--2--1---1-----------|
D|--00--00-0--00--00--0--00--00--0--00-0-11441144-|
pm  **  ** *  **  **  *  **  **  *  ** * ********

then...
[INTRO] both guitars plays 1 time
e|----------------------------------------|
B|----------------------------------------|
G|----------------------------------------|
D|----------------------------------------|
A|----------------------------------------|
D|--000-16-0-16-0-16-0-16-0-16-0-16-0-16-0|
pm  ***    *    *    *    *    *    *    *

e|----------------------------------------|
B|----------------------------------------|
G|----------------------------------------|
D|----------------------------------------|
A|----------------------------------------|
D|--000-15-0-15-0-15-0-15-0-15-0-15-0-15-0|
pm  ***    *    *    *    *    *    *    *

e|----------------------------------------|
B|----------------------------------------|
G|----------------------------------------|
D|----------------------------------------|
A|----------------------------------------|
D|--000-18-0-18-0-18-0-13-0-13-0-13-0-13-0|
pm  ***    *    *    *    *    *    *    *
                      only 1 guitar for rundown
e|-------------------|----------------------|
B|-------------------|----------------------|
G|-------------------|----------------------|
D|-------------------|----------------------|
A|-------------------|16-13-12-17-12--------|
D|-000-12-0-12-0-12-0|--------------15-16-13|
pm  ***    *    *   *

[VERSE RIFF PART B] both guitars 4 times played
e|------------------------------------------|
B|------------------------------------------|
G|------------------------------------------|
D|------------------------------------------|
A|------------------------------------------|
D|--0-000-000-000-000-000-001716151415141315|
pm  * *** *** *** *** *** **

[CHORUS RIFF] both guitars played once
e|-------------------------------|------------------------------------|
B|-------------------------------|------------------------------------|
G|-------------------------------|------------------------------------|
D|-----------------7-------------|------------5--7--------------------|
A|-------7--8--10-----10--8--7---|------7--8--------8-7h8h9h10-0h5h7h8|
D|--8-888-88-88--88-88--88-88-88-|-5-555-55-55-55-55------------------|
pm  * *** ** **  ** **  ** ** **   * *** ** ** ** **

then..
[VERSE RIFF PART B] both guitars 2 times played
e|------------------------------------------|
B|------------------------------------------|
G|------------------------------------------|
D|------------------------------------------|
A|------------------------------------------|
D|--0-000-000-000-000-000-001716151415141315|
pm  * *** *** *** *** *** **

then...
[CHORUS RIFF] both guitars played once
e|-------------------------------|------------------------------------|
B|-------------------------------|------------------------------------|
G|-------------------------------|------------------------------------|
D|-----------------7-------------|------------5--7--------------------|
A|-------7--8--10-----10--8--7---|------7--8--------8-7h8h9h10-0h5h7h8|
D|--8-888-88-88--88-88--88-88-88-|-5-555-55-55-55-55------------------|
pm  * *** ** **  ** **  ** ** **   * *** ** ** ** **

second time with a slight alteration
[CHORUS RIFF] both guitars played once
e|-------------------------------|--------------------------|
B|-------------------------------|--------------------------|
G|-------------------------------|--------------------------|
D|-----------------7-------------|------------5-----7---8---|
A|-------7--8--10-----10--8--7---|------7--8---------------5|
D|--8-888-88-88--88-88--88-88-88-|-5-555-55-55-5-555--55-55-|
pm  * *** ** **  ** **  ** ** **   * *** ** ** * ***  ** **

[OUTRO/BREAKDOWN] played until the end of the song, so about 12 times
e|---------------------------------|
B|---------------------------------|
G|---------------------------------|
D|---------------------------------|
A|--------------------------1-4-1-3|
D|--0000-00000-0000-0000-00-1-4-1-3|
pm  **** ***** **** **** **

[LEAD] 1 guitar plays about 8 times
e|------------8--------------------------8---------|
B|--13---14-------14---13------13---14------14---10|
G|----8----8---8----8----8--8----8----8---8---8--11|
D|-----------------------------------------------12|
A|-------------------------------------------------|
D|-------------------------------------------------|

And that's it, enjoy.
Any corrections or questions leave a comment or email  this_is_sh@hotmail.com
Tap to rate this tab
 
# A B C D E F G H I J K L M N O P Q R S T U V W X Y Z