Guitaretab - guitar tabs
Song name
# A B C D E F G H I J K L M N O P Q R S T U V W X Y Z

Lamb Of God - Redneck tab

Artist - Lamb of God
Song - Redneck
Album - Sacrament 

Tuning - Dropped D (DADGBe)
Tempo  - 135


     H         H            S  S S S S S S S S S E   E  S S  
E||----------------------|----------------------------------|
B||----------------------|----------------------------------|
G||----------------------|----------------------------------|
D||----------------------|----------------------------------|
A||-----------12S--------|-------------------3-5-3~--L------|
D||-----------12S--------|--3p-0-0-0-0-0-0-0------------3-0-|


  S S S S S S S S S S S S S S S S    S  S S S S S S S S S E   E  S S  
----------------------------------|----------------------------------|
----------------------------------|----------------------------------|
----------------------------------|----------------------------------|
----------------------------------|----------------------------------|
----------------------------------|-------------------3-5-3~--L------|
--3-0-0-0-0-0-0-0-3-1-0-3-1-0-5-6-|--3p-0-0-0-0-0-0-0------------3-0-|


  S S S S S S S S S S S S S S S S    S  S S S S S S S S S E   E  S S  
----------------------------------|----------------------------------|
----------------------------------|----------------------------------|
----------------------------------|----------------------------------|
----------------------------------|----------------------------------|
----------------------------------|-------------------3-5-3~--L------|
--3-0-0-0-0-0-0-0-3-1-0-3-1-0-5-6-|--3p-0-0-0-0-0-0-0------------3-0-|


  S S S S S S S S S S S S S S S S    S S S S S S S S S S S S S S S S  
----------------------------------|----------------------------------|
----------------------------------|----------------------------------|
----------------------------------|----------------------------------|
----------------------------------|----------------------------------|
----------------------------------|------------------3---------------|
--3-0-0-0-0-0-0-0-3-1-0-3-1-0-5-6-|--0-3-5-6-3-5-6-7---7-6-5-7-6-5-3-|


                     W  W                                          
  Q    S S S S S S   E  E  S S    S S S S S S S S S S S S S S S S  
-------------------------------|----------------------------------|
-------------------------------|----------------------------------|
-------------------------------|----------------------------------|
-------------------------------|----------------------------------|
--0------------3-5-<>3--L------|----------------------------------|
--0----0-0-0-0-------------3-0-|--3-0-0-0-0-0-0-0-3-1-0-3-1-0-5-6-|


  S  S S S S S S S S S E  E  S S    S S S S E  E  E  E  E  E   
---------------------------------|----------------------------|
---------------------------------|----------------------------|
---------------------------------|----------------------------|
---------------------------------|-------------------------5--|
-------------------3-5-3--L------|-------------------------3--|
--3p-0-0-0-0-0-0-0-----------3-0-|--5-3-0-3-7--6--L--5--L-----|


  S  S S S S S S S S S E  E  S S    S S S S S S S S S S S S S S S S  
---------------------------------|----------------------------------|
---------------------------------|----------------------------------|
---------------------------------|----------------------------------|
---------------------------------|----------------------------------|
-------------------3-5-3--L------|----------------------------------|
--3p-0-0-0-0-0-0-0-----------3-0-|--7-6-0-6-5-0-5-3-0-3-5-6-0-3-5-6-|


                                                         PM   PM       PM  
  S S S S S S S S Q       H         Q        E  E  S S S E  S E  S S S S   
-----------------------|------------------|-------------------------------|
-----------------------|------------------|-------------------------------|
-----------------------|------------------|-------------------------------|
-----------------------|------------------|-------------------------------|
--3---------------0----|--L--------12\----|--1--0-------------------------|
----7-6-5-7-6-5-3-0----|--L--------12\----|--1--0--0-0-0-0--0-0--0-0-0-0--|


      PM       PM   PM                        PM   PM       PM  
  S S E  S S S E  S E  S S S S    E  E  S S S E  S E  S S S S   
-------------------------------|-------------------------------|
-------------------------------|-------------------------------|
-------------------------------|-------------------------------|
-------------------------------|-------------------------------|
-----------------------3-------|--1--0-------------------------|
----0-0--0-0-0-0--0-0----0-1-3-|--1--0--0-0-0-0--0-0--0-0-0-0--|


      PM       PM   PM                        PM   PM       PM  
  S S E  S S S E  S E  S S S S    E  E  S S S E  S E  S S S S   
-------------------------------|-------------------------------|
-------------------------------|-------------------------------|
-------------------------------|-------------------------------|
-------------------------------|-------------------------------|
-----------------------3-------|--1--0-------------------------|
----0-0--0-0-0-0--0-0----0-1-3-|--1--0--0-0-0-0--0-0--0-0-0-0--|


      PM       PM   PM                        PM   PM       PM  
  S S E  S S S E  S E  S S S S    E  E  S S S E  S E  S S S S   
-------------------------------|-------------------------------|
-------------------------------|-------------------------------|
-------------------------------|-------------------------------|
-------------------------------|-------------------------------|
-----------------------3-------|--1--0-------------------------|
----0-0--0-0-0-0--0-0----0-1-3-|--1--0--0-0-0-0--0-0--0-0-0-0--|


  S S S S E  E  E  E  E  E     S S S S S S S S S S S S S S S S  
----------------------------|----------------------------------|
----------------------------|----------------------------------|
----------------------------|----------------------------------|
-------------------------5--|----------------------------------|
-------------------------3--|----------------------------------|
----0-0-0-7--6--L--5--L-----|--0-7-6-0-7-6-0-0-1-0-0-0-0-0-0-0-|


  S S S S S S S S S S S S S S S S    S S S S S S S S S S S S S S S S  
----------------------------------|----------------------------------|
----------------------------------|----------------------------------|
----------------------------------|----------------------------------|
----------------------------------|----------------------------------|
----------------------------------|----------------------------------|
--0-7-6-0-7-6-0-6-5-0-6-5-3-6-3-5-|--0-7-6-0-7-6-0-0-1-0-0-0-0-0-0-0-|


  S S S S S S S S S S S S S S S S    S S S S S S S S S S S S S S S S  
----------------------------------|----------------------------------|
----------------------------------|----------------------------------|
----------------------------------|----------------------------------|
----------------------------------|----------------------------------|
----------------------------------|----------------------------------|
--0-7-6-0-7-6-0-6-5-0-6-5-3-6-3-5-|--0-7-6-0-7-6-0-0-1-0-0-0-0-0-0-0-|


  S S S S S S S S S S S S S S S S    S S S S S S S S S S S S S S S S  
----------------------------------|----------------------------------|
----------------------------------|----------------------------------|
----------------------------------|----------------------------------|
----------------------------------|----------------------------------|
----------------------------------|--5-----------6-----------6-------|
--0-7-6-0-7-6-0-6-5-0-6-5-3-6-3-5-|----6-5-0-5-6---7-5-0-5-7---7-6-3-|


                     W  W                                          
  Q    S S S S S S   E  E  S S    S S S S S S S S S S S S S S S S  
-------------------------------|----------------------------------|
-------------------------------|----------------------------------|
-------------------------------|----------------------------------|
-------------------------------|----------------------------------|
--0------------3-5-<>3--L------|----------------------------------|
--0----0-0-0-0-------------3-0-|--3-0-0-0-0-0-0-0-3-1-0-3-1-0-5-6-|


  S  S S S S S S S S S E  E  S S    S S S S E  E  E  E  E  E   
---------------------------------|----------------------------|
---------------------------------|----------------------------|
---------------------------------|----------------------------|
---------------------------------|-------------------------5--|
-------------------3-5-3--L------|-------------------------3--|
--3p-0-0-0-0-0-0-0-----------3-0-|--5-3-0-3-7--6--L--5--L-----|


  S  S S S S S S S S S E  E  S S    S  S S S S S S S S S S S S S S S  
---------------------------------|-----------------------------------|
---------------------------------|-----------------------------------|
---------------------------------|-----------------------------------|
---------------------------------|-----------------------------------|
-------------------3-5-3--L------|-----------------------------------|
--3p-0-0-0-0-0-0-0-----------3-0-|--3p-0-0-0-0-0-0-0-7-6-0-6-5-0-5-3-|


  S  S S S S S S S S S E  E  S S    S S S S S S S S S S S S S S S S  
---------------------------------|----------------------------------|
---------------------------------|----------------------------------|
---------------------------------|----------------------------------|
---------------------------------|----------------------------------|
-------------------3-5-3--L------|------------------3---------------|
--3p-0-0-0-0-0-0-0-----------3-0-|--0-3-5-6-3-5-6-7---7-6-5-7-6-5-0-|


                                     PM   PM          
  H.            Q        E  E  S S S E  S E  S S S S  
----------------------|------------------------------|
----------------------|------------------------------|
----------------------|------------------------------|
----------------------|------------------------------|
--0------------15\----|--1--0------------------------|
--0------------15\----|--1--0--0-0-0-0--0-0--0-0-0-0-|


      PM       PM   PM                        PM   PM          
  S S E  S S S E  S E  S S S S    E  E  S S S E  S E  S S S S  
-------------------------------|------------------------------|
-------------------------------|------------------------------|
-------------------------------|------------------------------|
-------------------------------|------------------------------|
-----------------------3-------|--1--0------------------------|
----0-0--0-0-0-0--0-0----0-1-3-|--1--0--0-0-0-0--0-0--0-0-0-0-|


      PM       PM   PM                        PM   PM          
  S S E  S S S E  S E  S S S S    E  E  S S S E  S E  S S S S  
-------------------------------|------------------------------|
-------------------------------|------------------------------|
-------------------------------|------------------------------|
-------------------------------|------------------------------|
-----------------------3-------|--1--0------------------------|
----0-0--0-0-0-0--0-0----0-1-3-|--1--0--0-0-0-0--0-0--0-0-0-0-|


      PM       PM   PM                        PM   PM          
  S S E  S S S E  S E  S S S S    E  E  S S S E  S E  S S S S  
-------------------------------|------------------------------|
-------------------------------|------------------------------|
-------------------------------|------------------------------|
-------------------------------|------------------------------|
-----------------------3-------|--1--0------------------------|
----0-0--0-0-0-0--0-0----0-1-3-|--1--0--0-0-0-0--0-0--0-0-0-0-|


  S S S S E  E  E  E  E  E     S S S S S S S S S S S S S S S S  
----------------------------|----------------------------------|
----------------------------|----------------------------------|
----------------------------|----------------------------------|
-------------------------5--|----------------------------------|
-------------------------3--|----------------------------------|
----0-0-0-7--6--L--5--L-----|--0-7-6-0-7-6-0-0-1-0-0-0-0-0-0-0-|


  S S S S S S S S S S S S S S S S    S S S S S S S S S S S S S S S S  
----------------------------------|----------------------------------|
----------------------------------|----------------------------------|
----------------------------------|----------------------------------|
----------------------------------|----------------------------------|
----------------------------------|----------------------------------|
--0-7-6-0-7-6-0-6-5-0-6-5-3-6-3-5-|--0-7-6-0-7-6-0-0-1-0-0-0-0-0-0-0-|


  S S S S S S S S S S S S S S S S    S S S S S S S S S S S S S S S S  
----------------------------------|----------------------------------|
----------------------------------|----------------------------------|
----------------------------------|----------------------------------|
----------------------------------|----------------------------------|
----------------------------------|----------------------------------|
--0-7-6-0-7-6-0-6-5-0-6-5-3-6-3-5-|--0-7-6-0-7-6-0-0-1-0-0-0-0-0-0-0-|


  S S S S S S S S S S S S S S S S    S S S S S S S S S S S S S S S S  
----------------------------------|----------------------------------|
----------------------------------|----------------------------------|
----------------------------------|----------------------------------|
----------------------------------|----------------------------------|
----------------------------------|--5-----------6-----------6-------|
--0-7-6-0-7-6-0-6-5-0-6-5-3-6-3-5-|----6-5-0-5-6---7-5-0-5-7---7-6-3-|


                     W  W                                          
  Q    S S S S S S   E  E  S S    S S S S S S S S S S S S S S S S  
-------------------------------|----------------------------------|
-------------------------------|----------------------------------|
-------------------------------|----------------------------------|
-------------------------------|----------------------------------|
--0------------3-5-<>3--L------|----------------------------------|
--0----0-0-0-0-------------3-0-|--3-0-0-0-0-0-0-0-3-1-0-3-1-0-5-6-|


  S  S S S S S S S S S E  E  S S    S S S S E  E  E  E  E  E   
---------------------------------|----------------------------|
---------------------------------|----------------------------|
---------------------------------|----------------------------|
---------------------------------|-------------------------5--|
-------------------3-5-3--L------|-------------------------3--|
--3p-0-0-0-0-0-0-0-----------3-0-|--5-3-0-3-7--6--L--5--L-----|


  S  S S S S S S S S S E  E  S S    S  S S S S S S S S S S S S S S S  
---------------------------------|-----------------------------------|
---------------------------------|-----------------------------------|
---------------------------------|-----------------------------------|
---------------------------------|-----------------------------------|
-------------------3-5-3--L------|-----------------------------------|
--3p-0-0-0-0-0-0-0-----------3-0-|--3p-0-0-0-0-0-0-0-7-6-0-6-5-0-5-3-|

[ Tab from: http://www.guitaretab.com/l/lamb-of-god/74561.html ]
  S  S S S S S S S S S E  E  S S    S S S S S S S S S S S S S S S S  
---------------------------------|----------------------------------|
---------------------------------|----------------------------------|
---------------------------------|----------------------------------|
---------------------------------|----------------------------------|
-------------------3-5-3--L------|------------------3---------------|
--3p-0-0-0-0-0-0-0-----------3-0-|--0-3-5-6-3-5-6-7---7-6-5-7-6-5-0-|


                      PM                         PM                             
  Q    E  E  E  E  E  E     E  E  E  E  E  E  E  E     E  E  E  E  E  E  E  E   
-------------------------|--------------------------|--------------------------|
-------------------------|--------------------------|--------------------------|
-------------------------|--------------------------|--------------------------|
-------------------------|--------------------------|--------------------------|
--0----7--6--L--5--L--3--|--0--0--7--6--L--5--L--3--|--0--0--7--6--L--5--L--3--|
--0----7--6--L--5--L--3--|--0--0--7--6--L--5--L--3--|--0--0--7--6--L--5--L--3--|


  W                   W                 
-------------------|-------------------|
-------------------|-------------------|
-------------------|-------------------|
-------------------|-------------------|
--0----------------|--L----------------|
--0----------------|--L----------------|


  E   S  S  S  S  S  S  S  S  S  S  S  S  S  S  
-----------------------------------------------|
-----------------------------------------------|
-----------------------------------------------|
-----------------------------------------------|
-----------11-13-------------------------------|
-----12-13-------12-13-10-13-11-13-10-13-11-14-|


  S S S S S S S S S S S S S S S S  
----------------------------------|
----------------------------------|
----------------------------------|
----------------------------------|
----------------------------------|
--0-0-0-0-0-0-0-0-0-0-0-0-0-0-0-0-|


  S S  S  S  S  S  S  S  S  S  S  S  S  S  S  S  
------------------------------------------------|
------------------------------------------------|
------------------------------------------------|
-------------6--8-------------------------------|
-------5--6-11-13--5--6--3--6--4--6--3--6--4--7-|
--0-0-12-13-------12-13-10-13-11-13-10-13-11-14-|


  S S S S S S S S S S S S S S S S  
----------------------------------|
----------------------------------|
----------------------------------|
----------------------------------|
----------------------------------|
--0-0-0-0-0-0-0-0-0-0-0-0-0-0-0-0-|


  S S  S  S  S  S  S  S  S  S  S  S  S  S  S  S  
------------------------------------------------|
------------------------------------------------|
------------------------------------------------|
------------------------------------------------|
------------11-13-------------------------------|
--0-0-12-13-------12-13-10-13-11-13-10-13-11-14-|


  S S S S S S S S S S S S S S S S  
----------------------------------|
----------------------------------|
----------------------------------|
----------------------------------|
----------------------------------|
--0-0-0-0-0-0-0-0-0-0-0-0-0-0-0-0-|


  S S  S  S  S  S  S  S  S  S  S  S  S  S  S  S  
------------------------------------------------|
------------------------------------------------|
------------------------------------------------|
------------------------------------------------|
------------11-13-------------------------------|
--0-0-12-13-------12-13-10-13-11-13-10-13-11-14-|


  S S S S S S S S S S S S S S S S  
----------------------------------|
----------------------------------|
----------------------------------|
----------------------------------|
----------------------------------|
--0-0-0-0-0-0-0-0-0-0-0-0-0-0-0-0-|


  S S  S  S  S  S  S  S  S  S  S  S  S  S  S  S  
------------------------------------------------|
------------------------------------------------|
------------------------------------------------|
------------------------------------------------|
------------11-13-------------------------------|
--0-0-12-13-------12-13-10-13-11-13-10-13-11-14-|


  PM PM PM PM PM PM PM PM PM PM PM PM  
  E  E  S  S  S  E  S  E  S  S  S  S   
--------------------------------------|
--------------------------------------|
--------------------------------------|
--------------------------------------|
--0--0--0--0--0--0--0--0--0--0--0--0--|
--0--0--0--0--0--0--0--0--0--0--0--0--|


  PM                                            
  E   S  S  S  S  S  S  S  S  S  S  S  S  S  S  
-----------------------------------------------|
-----------------------------------------------|
-----------------------------------------------|
-----------------------------------------------|
--0--------11-13-------------------------------|
--0--12-13-------12-13-10-13-11-13-10-13-11-14-|


  PM PM PM PM PM PM PM PM PM PM PM PM  
  E  E  S  S  S  E  S  E  S  S  S  S   
--------------------------------------|
--------------------------------------|
--------------------------------------|
--------------------------------------|
--0--0--0--0--0--0--0--0--0--0--0--0--|
--0--0--0--0--0--0--0--0--0--0--0--0--|


  PM                                            
  E   S  S  S  S  S  S  S  S  S  S  S  S  S  S  
-----------------------------------------------|
-----------------------------------------------|
-----------------------------------------------|
-----------------------------------------------|
--0--------11-13-------------------------------|
--0--12-13-------12-13-10-13-11-13-10-13-11-14-|


  PM PM PM PM PM PM PM PM PM PM PM PM  
  E  E  S  S  S  E  S  E  S  S  S  S   
--------------------------------------|
--------------------------------------|
--------------------------------------|
--------------------------------------|
--0--0--0--0--0--0--0--0--0--0--0--0--|
--0--0--0--0--0--0--0--0--0--0--0--0--|


  PM                                            
  E   S  S  S  S  S  S  S  S  S  S  S  S  S  S  
-----------------------------------------------|
-----------------------------------------------|
-----------------------------------------------|
-----------------------------------------------|
--0--------11-13-------------------------------|
--0--12-13-------12-13-10-13-11-13-10-13-11-14-|


  PM PM PM PM PM PM PM PM                                           
  E  E  S  S  S  E  S  E   Q        S  S S S S S S S S S E  E  S S  
---------------------------------|---------------------------------|
---------------------------------|---------------------------------|
---------------------------------|---------------------------------|
---------------------------------|---------------------------------|
--0--0--0--0--0--0--0--0--12\----|-------------------3-5-3--L------|
--0--0--0--0--0--0--0--0--12\----|--3p-0-0-0-0-0-0-0-----------3-0-|


  S S S S S S S S S S S S S S S S    S  S S S S S S S S S E  E  S S  
----------------------------------|---------------------------------|
----------------------------------|---------------------------------|
----------------------------------|---------------------------------|
----------------------------------|---------------------------------|
----------------------------------|-------------------3-5-3--L------|
--3-0-0-0-0-0-0-0-3-1-0-3-1-0-5-6-|--3p-0-0-0-0-0-0-0-----------3-0-|


                                                        W  W       
  S S S S S S S S S S S S S S S S    Q    S S S S S S   E  E  S S  
----------------------------------|-------------------------------|
----------------------------------|-------------------------------|
----------------------------------|-------------------------------|
----------------------------------|-------------------------------|
------------------3---------------|--0------------3-5-<>3--L------|
--0-3-5-6-3-5-6-7---7-6-5-7-6-5-0-|--0----0-0-0-0-------------3-0-|


  S S S S S S S S S S S S S S S S    S  S S S S S S S S S E  E  S S  
----------------------------------|---------------------------------|
----------------------------------|---------------------------------|
----------------------------------|---------------------------------|
----------------------------------|---------------------------------|
----------------------------------|-------------------3-5-3--L------|
--3-0-0-0-0-0-0-0-3-1-0-3-1-0-5-6-|--3p-0-0-0-0-0-0-0-----------3-0-|


  S S S S E  E  E  E  E  E     S  S S S S S S S S S E  E  S S  
----------------------------|---------------------------------|
----------------------------|---------------------------------|
----------------------------|---------------------------------|
-------------------------5--|---------------------------------|
-------------------------3--|-------------------3-5-3--L------|
--5-3-0-3-7--6--L--5--L-----|--3p-0-0-0-0-0-0-0-----------3-0-|


  S  S S S S S S S S S S S S S S S    S  S S S S S S S S S E  E  S S  
-----------------------------------|---------------------------------|
-----------------------------------|---------------------------------|
-----------------------------------|---------------------------------|
-----------------------------------|---------------------------------|
-----------------------------------|-------------------3-5-3--L------|
--3p-0-0-0-0-0-0-0-7-6-0-6-5-0-5-3-|--3p-0-0-0-0-0-0-0-----------3-0-|


                                                  W  W       
  S S S S E  E  E  E  E  E     Q    S S S S S S   E  E  S S  
----------------------------|-------------------------------|
----------------------------|-------------------------------|
----------------------------|-------------------------------|
-------------------------5--|-------------------------------|
-------------------------3--|--0------------3-5-<>3--L------|
--5-3-0-3-7--6--L--5--L-----|--0----0-0-0-0-------------3-0-|


  S S S S S S S S S S S S S S S S    S  S S S S S S S S S E  E  S S  
----------------------------------|---------------------------------|
----------------------------------|---------------------------------|
----------------------------------|---------------------------------|
----------------------------------|---------------------------------|
----------------------------------|-------------------3-5-3--L------|
--3-0-0-0-0-0-0-0-3-1-0-3-1-0-5-6-|--3p-0-0-0-0-0-0-0-----------3-0-|


  S S S S E  E  E  E  E  E     S  S S S S S S S S S E  E  S S  
----------------------------|---------------------------------|
----------------------------|---------------------------------|
----------------------------|---------------------------------|
-------------------------5--|---------------------------------|
-------------------------3--|-------------------3-5-3--L------|
--5-3-0-3-7--6--L--5--L-----|--3p-0-0-0-0-0-0-0-----------3-0-|


  S  S S S S S S S S S S S S S S S    S S S S S S S S S S S S S S S S  
-----------------------------------|----------------------------------|
-----------------------------------|----------------------------------|
-----------------------------------|----------------------------------|
-----------------------------------|----------------------------------|
-----------------------------------|------------------3---------------|
--3p-0-0-0-0-0-0-0-7-6-0-6-5-0-5-3-|--0-3-5-6-3-5-6-7---7-6-5-7-6-5-0-|


                      PM                         PM                         PM  
  Q    E  E  E  E  E  E     E  E  E  E  E  E  E  E     E  E  E  E  E  E  E  E   
-------------------------|--------------------------|--------------------------|
-------------------------|--------------------------|--------------------------|
-------------------------|--------------------------|--------------------------|
-------------------------|--------------------------|--------------------------|
--0----7--6--L--5--L--3--|--0--0--7--6--L--5--L--3--|--0--0--7--6--L--5--L--3--|
--0----7--6--L--5--L--3--|--0--0--7--6--L--5--L--3--|--0--0--7--6--L--5--L--3--|


                       PM                         PM  
  E  E  E  E  E  E  E  E     E  E  E  E  E  E  E  E   
--------------------------|--------------------------|
--------------------------|--------------------------|
--------------------------|--------------------------|
--------------------------|--------------------------|
--0--0--7--6--L--5--L--3--|--0--0--7--6--L--5--L--3--|
--0--0--7--6--L--5--L--3--|--0--0--7--6--L--5--L--3--|


                       PM                         PM  
  E  E  E  E  E  E  E  E     E  E  E  E  E  E  E  E   
--------------------------|--------------------------|
--------------------------|--------------------------|
--------------------------|--------------------------|
--------------------------|--------------------------|
--0--0--7--6--L--5--L--3--|--0--0--7--6--L--5--L--3--|
--0--0--7--6--L--5--L--3--|--0--0--7--6--L--5--L--3--|


                       PM                        PM                         PM  
  E  E  E  E  E  E  E  E     Q    E  E  E  E  E  E     E  E  E  E  E  E  E  E   
--------------------------|-------------------------|--------------------------|
--------------------------|-------------------------|--------------------------|
--------------------------|-------------------------|--------------------------|
--------------------------|-------------------------|--------------------------|
--0--0--7--6--L--5--L--3--|--0----7--6--L--5--L--3--|--0--0--7--6--L--5--L--3--|
--0--0--7--6--L--5--L--3--|--0----7--6--L--5--L--3--|--0--0--7--6--L--5--L--3--|


                       PM                                          
  E  E  E  E  E  E  E  E     W                   W                 
--------------------------|-------------------|-------------------|
--------------------------|-------------------|-------------------|
--------------------------|-------------------|-------------------|
--------------------------|-------------------|-------------------|
--0--0--7--6--L--5--L--3--|--0----------------|--L----------------|
--0--0--7--6--L--5--L--3--|--0----------------|--L----------------|


  W                   W                   W                 
-------------------|-------------------|-------------------|
-------------------|-------------------|-------------------|
-------------------|-------------------|-------------------|
-------------------|-------------------|-------------------|
--L----------------|--L----------------|--L----------------|
--L----------------|--L----------------|--L----------------|


  S S  S  S  S  S  S  S  S  S  S  S  S  S  S  S    Q    H.             
------------------------------------------------|--------------------||
------------------------------------------------|--------------------||
------------------------------------------------|--------------------||
------------------------------------------------|--------------------||
------------11-13-------------------------------|--0-----------------||
--0-0-12-13-------12-13-10-13-11-13-10-13-11-14-|--0-----------------||




Duration Legend
---------------
W - whole
H - half
Q - quarter
E - 8th
S - 16th
T - 32nd
X - 64th
. - note dotted
|-n-|  - n-tuplets


Tablature Legend
----------------
L - tied note
x - dead note
g - grace note
(n) - ghost note
> - accentuded note
NH - natural harmonic
AH - artificial harmonic
TH - tapped harmonic
SH - semi harmonic
PH - pitch harmonic
h - hammer on
p - pull off
b - bend
br - bendRelease
pb - preBend
pbr - preBendRelease
brb - bendReleaseBend
\n/ - tremolo bar dip
\n - tremolo bar dive
-/n - tremolo bar Release up
/n\ - tremolo bar inverted dip
/n - tremolo bar return
-\n - tremolo bar Release down
S - shift slide
s - legato slide
/ -  slide into from below or out of upwards
\ -  slide into from above or out of downwards
~ - vibrato
W - wide vibrato
tr - trill
TP - tremolo picking
T - tapping
S - slap
P - pop
< - fade in
^ - brush up
v - brush down
Related for Redneck tab
Advertisement will be closed in 10 seconds