Song name
# A B C D E F G H I J K L M N O P Q R S T U V W X Y Z

Landon Austin - Once In A Lifetime tab

Sorry for any mistakes! First attempt at tabbing, couldnít find this song anywhere so 
gave it a go.

Tuning Ė Standard
Capo 5th fret

You play Em7 Cadd9 G G/F# but pick like this

E|------------------------------------------------------|
B|-------3----3-----3----3-----3----3----3-----3--------|
G|------0-0--0-0---0-0--0-0---0-3--0-0--0-0---0-0-------|
D|------------------------------------------------------|
A|-----2----2-----3----3--------------------------------|
E|---------------------------3----3----3-----2----------|
       Em7        Cadd9      G               G/F#
Thereís a couple of little licks he does, I havenít quite worked them out but you could 
do            or
E|------------|         E|---0--30----|
B|---0--30----|         B|----13------|
G|----02------|         G|------------|

He does a bridge here as well http://www.youtube.com/watch?v=FiuVK_4ysUY. Play it 
normally up to G, but then thereís another chord. Asus2 maybe? Iíll update this when Iíve got it
Tap to rate this tab
# A B C D E F G H I J K L M N O P Q R S T U V W X Y Z