Song name
# A B C D E F G H I J K L M N O P Q R S T U V W X Y Z

Lano And Woodley - Snake tab

This is a funny song.. short.. but funny.

e-----------------------------------|
B-----------------------------------|
G-----3----------------3------------|
D-------------5-3--------------5~---| 2x
A-----------------------------------|
E-2-2---22-22------2-2---22-22------|

e-----------------------------------|
B-----------------------------------|
G-----3----------------3------------|
D-------------5-3--------------5~---|
A-----------------------------------|
E-2-2---22-22------2-2---22-22------|

Lyrics:

What does a snake do when it feels like having a lie down
Tap to rate this tab
 
# A B C D E F G H I J K L M N O P Q R S T U V W X Y Z