Guitaretab - guitar tabs
Song name
# A B C D E F G H I J K L M N O P Q R S T U V W X Y Z

Lano And Woodley - Bouncy Rabbit tab

Easy song...
Tuning: eadgbe
E-mail: shorty_rox_06@hotmail.com

Intro and Verse:
e|----------2-2---------|
B|--1-1-----3-3-1-1-1-1-|
G|--2-2-1-1-2-2-2-2-2-2-|
D|--2-2-2-2-----2-2-2-2-|
A|--0-0-2-2-----0-0-0-0-|
E|------0-0-------------| x5

e|---------|
B|--1---1--|
G|--2-1-2--|
D|--2-2-2--|
A|--0-2-0--|
E|----0----| x2

e|--4-4-4-4-5-5-5-5--|
A|--4-4-4-4-5-5-5-5--|
D|--6-66-6-7-7-7-7--|
G|--6-66-6-7-7-7-7--|
B|--5-55-5-6-6-6-6--|
E|-----------------| X4
[ Tab from: http://www.guitaretab.com/l/lano-and-woodley/82442.html ]
Chorus:
e|----------2-2---------|
B|--1-1-----3-3-1-1-1-1-|
G|--2-2-1-1-2-2-2-2-2-2-|
D|--2-2-2-2-----2-2-2-2-|
A|--0-0-2-2-----0-0-0-0-|
E|------0-0-------------| x3

e|---------|
B|--1---1--|
G|--2-1-2--|
D|--2-2-2--|
A|--0-2-0--|
E|----0----| x1


Lyrics:

Verse:
I'm a bouncy bouncy rabbit.
Allthough im very small.
Im climbing up a mountain.
And it is very tall.

Pre Chorus:
With me tail in the air.
Im bouncing everywhere
If i could go just a little more.
But i am getting very sore.

Chorus:
But finaly i get there.
Their are bunnnys everywhere.
It looks like im in luck.
We all start to f**k.
Related for Bouncy Rabbit tab