Song name
# A B C D E F G H I J K L M N O P Q R S T U V W X Y Z

Lars Frederiksen And The Bastards - 1 tab

Hi ,here is a tab its my first one hope its ok

^ bend to next note up

intro- strum out these bad boys
e-------------------------|
b-------------------------|
g-------------------------|
d-------------7777--------|
a-2222--5555--5555--77-55-|
e-0000--3333--------55-33-|

verse -get some stabby down strokes for these
e----------------|---------------|
b----------------|---------------|
g----------------|---------------|
d---------77-----|---------------|
a-22--55--55--75-|22--55--55--57-|
e-00--33------53-|00--33------35-|

Chorus

chords
strum these chords 2 bars for each then change
e------------|
b------------|
g------------|
d----7--5--4-|
a-2--5--3--2-|
e-0----------|

lead part for chorus
e-12-0-0-12-0-0-12-0-|
b--------------------|  repeat throughout chorus
g--------------------|
d--------------------|
a--------------------|
e--------------------|

Solo, the one at 2:07

e------------------------|
b-12---10-------8---12---|
g-14^--12^12^--10^--14^--|
d------------------------|
a------------------------|
e------------------------|

thats all i got more i will keep adding.
Tap to rate this tab
# A B C D E F G H I J K L M N O P Q R S T U V W X Y Z