Song name
# A B C D E F G H I J K L M N O P Q R S T U V W X Y Z

Lars Frederiksen And The Bastards - Viking tab

LARS FREDERIKSEN AND THE BASTARDS
VIKING
01.Bastards
02.Skins, Punx & Drunx
03.Fight
04.1%
05.Switchblade
06.Marie Marie
07.Little Rude Girl
08.Maggots
09.Mainlining Murder
10.For You
11.My Life To Live
12.Kids Are Quiet On Sharmon Palms
13.Blind Ambition
14.Gods Of War
15.Streetwise Professor
16.Viking

Tabbed by ERYKNAJ
eryknaj@vp.pl    ENJOY THE BEST ROCKNROLL!


01.BASTARDS
INTRO
e|----------------------|
B|----------------------|
G|----------------------|
D|----77777777-5-4------|
A|----77777777-5-4------|
E|----55555555-3-2------|
VERSE
e|---------------------------------------------------------------------|
B|---------------------------------------------------------------------|
G|----7-777---------7-777---------7-777---------5-555------------------|
D|----7-777--5-555--7-777--5-555--7-777--5-555--5-555--5-555-----------|
A|----5-555--5-555--5-555--5-555--5-555--5-555--3-333--5-555-----------|
E|-----------3-333---------3-333---------3-333---------3-333-----------|
CHORUS
e|------------------------------------------|
B|------------------------------------------|
G|------------------------------------------|
D|----3333333333333333-7777777777777777-----|
A|----3333333333333333-7777777777777777-----|
E|----1111111111111111-5555555555555555-----|
SOLO
e|-----------------------------------------------------------------------------|
B|-------6-------------6----------------6-----------5------5-------------------|
G|--------7-5---57------7-5---5-7-5------7-5---57----7-5----7-5----------------|
D|-----------757-----------757-----7--------757---------7------7---------------|
A|-----------------------------------------------------------------------------|
E|-----------------------------------------------------------------------------|

02.SKINS PUNX AND DRUNX

INTRO
e|-------------------------------|----------------------|
B|-------------------------------|----------------------|
G|-------------------------------|--------5-5-7777------|
D|-----222---222--555----777-----|---7-7--5-5-7777------|
A|---0-----0-----3-----5---------|---7-7--3-3-5555------|
E|-------------------------------|---5-5----------------|

VERsE - very fast hc palmmuted
e|-------------------------------------|
B|-------------------------------------|
G|------------------5555555-88888888---|
D|--777777777777777-5555555-88888888---|
A|--777777777777777-3333333-66666666---|
E|--555555555555555--------------------|

Chorus
e|------------------------------------------|
B|------------------------------------------|
G|-------7777---------------78787878--------|
D|--5----7777-7777-------5--78787878--------|
A|--5----5555-7777-------5--56565656--------|
E|--3---------5555---x3--3------------------|

03.FIGHT

Verse
e|--------------------|
B|--------------------|
G|---------77-55------|
D|---77-55-77-55------|
A|---77-55-55-33------|
E|---55-33------------|

CHORus	
e|-------------------------------------|
B|-------------------------------------|
G|-------------------7-7-7-7-5-5-5-5---|
D|---7-7-7-7-5-5-5-5-7-7-7-7-5-5-5-5---|
A|---7-7-7-7-5-5-5-5-5-5-5-5-3-3-3-3---|
E|---5-5-5-5-3-3-3-3-------------------|

04.1%
VERSE
e|-----------------------------------|
B|-----------------------------------|
G|-----------4--4-4--7--7-7----------|
D|---2--2-2--4--4-4--7--7-7--7-5-----|
A|---2--2-2--2--2-2--5--5-5--7-5-----|
E|---0--0-0------------------5-3-----|
Chorus
e|----------------------------------------------------------------------|
B|----------------------------------------------------------------------|
G|----------------------------------------------------------------------|
D|---9-9-9-9-9-9-9-9-7-7-7-7-7-7-7-7-5-5-5-5-5-5-5-5-7-7-7-7-4-4-4-4----|
A|---7-7-7-7-7-7-7-7-5-5-5-5-5-5-5-5-3-3-3-3-3-3-3-3-5-5-5-5-2-2-2-2----|
E|----------------------------------------------------------------------|


05.Switchblade
vERSE|CHORUS
e|-------------------------------------|
b|-------------------------------------|
G|-------------------7-7-7-7-9-9-9-9---|
D|---7-7-7-7-5-5-5-5-7-7-7-7-9-9-9-9---|
A|---7-7-7-7-5-5-5-5-5-5-5-5-7-7-7-7---|
E|---5-5-5-5-3-3-3-3-------------------|


06.MARIE MARIE

intro
e|---------------|
B|---6-6-6-6-6---|
G|---5-5-5-5-5---|
D|---4-4-4-4-4---|
A|---5-5-5-5-5---|
E|---------------|

e|---------------------------------------------------------------------------
B|---------------------------------------------------------------------------
G|---------------------------------------------------------------------------
D|--5-5-5-5--5-5-5-5--5-5-5-5--5-5-5-5--5-5-5-5--5-5-5-5--5-5-5-5--5-5-5-5---
A|--5-5-5-5--5-5-5-5--5-5-5-5--5-5-5-5--5-5-5-5--5-5-5-5--5-5-5-5--5-5-5-5---
E|--3-3-3-3--3-3-3-3--3-3-3-3--3-3-3-3--3-3-3-3--3-3-3-3--3-3-3-3--3-3-3-3---

-----------------------------------------------------------------------------
-----------------------------------------------------------------------------
--7-7-7-7--7-7-7-7--7-7-7-7--7-7-7-7--5-5-5-5--5-5-5-5--7-7-7-7--7-7-7-7-----
--7-7-7-7--7-7-7-7--7-7-7-7--7-7-7-7--5-5-5-5--5-5-5-5--7-7-7-7--7-7-7-7-----
--5-5-5-5--5-5-5-5--5-5-5-5--5-5-5-5--3-3-3-3--3-3-3-3--5-5-5-5--5-5-5-5-----
-----------------------------------------------------------------------------

----------------------------------------|
----------------------------------------|
----------------------------------------|
-5-5-5-5--5-5-5-5--5-5-5-5--5-5-5-5-----|
-5-5-5-5--5-5-5-5--5-5-5-5--5-5-5-5-----|
-3-3-3-3--3-3-3-3--3-3-3-3--3-3-3-3-----|


ChoRUS
e|-----------------------------------------|
B|-----------------------------------------|
G|--7-7-7-7-7-7-7-7-7-7-7-7-7-7-7-7--------|
D|--7-7-7-7-7-7-7-7-7-7-7-7-7-7-7-7--------|
A|--5-5-5-5-5-5-5-5-5-5-5-5-5-5-5-5--x2----|
E|-----------------------------------------|

SOLO:
e|-33---33---33---33---33---3--33---33---66666--10-10----------10-----1010---------10-
B|-33---33---33---33---33---3--33---33---55555--10-10----------10-----1010---------10-
G|----5----5----5----5----5---5---5-------------------12-10-12------------12-10-12----
D|------------------------------------------------------------------------------------
A|------------------------------------------------------------------------------------
E|------------------------------------------------------------------------------------

-8-1111-8-10-12-12-10-333-6-666-3---------------------------|
-8-1010-8-10-11-11-10-333-5-555-3---------------------------|
------------------------------------------------------------|
------------------------------------------------------------|
------------------------------------------------------------|
------------------------------------------------------------|

VERSE B4 SOLO2
e|-----------------------------------------------------------------------|
B|-----------------------------------------------------------------------|
G|-----------------------------------------------------------------------|
D|---------------7-7-9-7------5-5-7-5------7-7-9-7-----------------------|
A|--5-5-7-5------5-5-5-5--x4--3-3-3-3--x2--5-5-5-5---x2---5-5-7-5--------|
E|--3-3-3-3-x8--------------------------------------------3-3-3-3--x4----|


SOLO2
e|-33-------3-4-5-6-7-8--10-----------10--13131313-88---------8--1111-131313-333-666-3-|
B|-33----x5-3-4-5-6-7-8--10-----------10--12121212-88---------8--1010-121212-333-555-3-|
G|----5---------------------12-10-12------------------10-8-10--------------------------|
D|-------------------------------------------------------------------------------------|
A|-------------------------------------------------------------------------------------|
E|-------------------------------------------------------------------------------------|



07.LITTLE RUDE GIRL

e|---------------------------------------------------------------------------|
B|---------------------------------------------------------------------------|
G|--7-7-7-7--7-7-7-7---------------------------------------------------------|
D|--7-7-7-7--7-7-7-7--9-9-9-9--9-9-9-9--5-5-5-5--5-5-5-5--7-7-7-7--7-7-7-7---|
A|--5-5-5-5--5-5-5-5--9-9-9-9--9-9-9-9--5-5-5-5--5-5-5-5--7-7-7-7--7-7-7-7---|
E|--------------------7-7-7-7--7-7-7-7--3-3-3-3--3-3-3-3--5-5-5-5--5-5-5-5---|

-------|
-------|
-------|
--5-7--|
--5-7--|
--3-5--|

VErSE/CHorus
e|---------------------------------------|
B|---------------------------------------|
G|---7-7-7-7---------7-7-7-7-------------|
D|---7-7-7-7-5-5-5-5-7-7-7-7-5-5-7-7-9---|
A|---5-5-5-5-5-5-5-5-5-5-5-5-5-5-7-7-9---|
E|-----------3-3-3-3---------3-3-5-5-7---|

Pre-CHORUS
e|----------------------------------------------------------------|
B|----------------------------------------------------------------|
G|----------------------------------------------------------------|
D|---9-9-9-9--9-9-9-9--5-5-5-5--5-5-5-5--9-9-9-9--9-9-9-9--5--7---|
A|---9-9-9-9--9-9-9-9--5-5-5-5--5-5-5-5--9-9-9-9--9-9-9-9--5--7---|
E|---7-7-7-7--7-7-7-7--3-3-3-3--3-3-3-3--7-7-7-7--7-7-7-7--3--5---|


08.MAGGOTS

e|------------------------------------|
B|------------------------------------|
G|------------------------------------|
D|------------------------------------|
A|---5-5-6-7-5-5-6-7-5-5-6-7-5-5------|
E|---5-5-5-5-5-5-5-5-5-5-5-5-5-5-7-6--|

e|--------------------------------------------------------------------------|
B|--------------------------------------------------------------------------|
G|--------------------------------------7-7-7-7--7-7-7-7--7-7-7-7--7-7-7-7--|
D|--3-3-3-3--3-3-3-3--7-7-7-7--7-7-7-7--7-7-7-7--7-7-7-7--7-7-7-7--7-7-7-7--|
A|--3-3-3-3--3-3-3-3--7-7-7-7--7-7-7-7--5-5-5-5--5-5-5-5--5-5-5-5--5-5-5-5--|
E|--1-1-1-1--1-1-1-1--5-5-5-5--5-5-5-5--------------------------------------|


09.MAINLINING MURDER

e|-----------------------------------|
B|-----------------------------------|
G|-----------------------------------|
D|----------1-1-1-1------------------|
A|--3-3-3-3---------------------1-1--|
E|------------------3-3-3-3-3-3------|

e|------------------------------------------------------------|
B|------------------------------------------------------------|
G|---5-5-5-5----3-3-3-3---------------------------------------|
D|---5-5-5-5----3-3-3-3----3-3-3-3----6-6-6-6----5-5-5-5------|
A|---3-3-3-3-x4-1-1-1-1-x4-3-3-3-3----6-6-6-6----5-5-5-5------|
E|-------------------------1-1-1-1-x4-4-4-4-4-x2-3-3-3-3-x2---|

e|----------------------------------------|
B|----------------------------------------|
G|---5-5-5-5--8-8-8-8---------------------|
D|---5-5-5-5--8-8-8-8--5-5-5-5--5-5-5-5---|
A|---3-3-3-3--6-6-6-6--5-5-5-5--5-5-5-5---|
E|---------------------3-3-3-3--3-3-3-3---|

10.FOR YOU

Verse
e|----------------------|
B|----------------------|
G|-------2-2--4-4--2-2--|
D|--2-2--2-2--4-4--2-2--|
A|--2-2--0-0--2-2--0-0--|
E|--0-0-----------------|

CHORUS
e|-------------------------------------------------------------------------|
B|-------------------------------------------------------------------------|
G|-------------------------------------------------------------------------|
D|--9-11-9--9-11-9--9-11-9--9-11-9-----------------------------------------|
A|--7-7 -7--7-7 -7--7-7 -7--7-7 -7--9-11-9--9-11-9--9-11-9--9-11-9---------|
E|----------------------------------7-7 -7--7-7 -7--7-7 -7--7-7 -7---------|

-----------------------------------------------------------------|
-----------------------------------------------------------------|
-----------------------------------------------------------------|
----7-9-7--7-9-7--7-9-7--7-9-7-----------------------------------|
----5-5-5--5-5-5--5-5-5--5-5-5----7-9-7--7-9-7--7-9-7--7-9-7-----|
----------------------------------5-5-5--5-5-5--5-5-5--5-5-5-----|

11.MY LIFE TO LIVE

e|-------------------------------------------------------------------------|
B|-------------------------------------------------------------------------|
G|-------6-7-------9-------------------------------------------------------|
D|--7-7--6-7--7-7--9--7----------------------------------------------------|
A|--7-7--4-5--7-7--7--7----------------------------------------------------|
E|--5-5-------5-5-----5----------------------------------------------------|


12.KIDS ARE QUIET ON SHARMON PALMS
CHorus
e|-------------------------------|
B|-------------------------------|
G|---------7--------7-6-4-4-2----|
D|---7-----7-2-7----7-6-4-4-2----|
A|---7-----5-2-7----5-4-2-2-0----|
E|---5-------0-5-----------------|

VERSE
e|---------------------------------------|
B|---------------------------------------|
G|--------------------6-7-6-7------------|
D|---6-7-7-7-6-7-7-7--6-7-6-7--6-7-7-7---|
A|---6-7-7-7-6-7-7-7--4-5-4-5--6-7-7-7---|
E|---4-5-5-5-4-5-5-5-----------4-5-5-5---|

BRIDGE BEFORE SOLO
e|----------------------------------------|
B|----------------------------------------|
G|---9-9-9-9--9-9-9-9--8-8-8-8------------|
D|---9-9-9-9--9-9-9-9--8-8-8-8--7-7-7-7---|
A|---7-7-7-7--7-7-7-7--6-6-6-6--7-7-7-7---|
E|------------------------------5-5-5-5---|


13.BLIND AMBITION
14.GODS OF WAR

GODS OF WAR IS THE SAME RIFF BUT MUCH SLOWER

VERSE
e|-----------------------|
B|-----------------------|
G|--9999------7777-------|
D|--9999-8888-7777-5555--|
A|--7777-8888-5555-5555--|
E|-------6666------3333--|

CHORUS
e|-------------|
B|-------------|
G|---7---9999--|
D|--578--9999--|
A|--558--7777--|
E|--3----------|


15.STREETWISE PROFESSOR
intro/preverse
e|-------------------------------------|
B|-------------------------------------|
G|-------------------------------------|
D|------------------9-11-9-11-7-9-7-9--|
A|--7-9-7-9-7-9-7-9-7-7 -7-7 -5-5-5-5--|
E|--5-5-5-5-5-5-5-5--------------------|

verse
e|-----------------------------------|
B|-----------------------------------|
G|------------------9-9-9-9-7-7-7-7--|
D|--7-7-7-7-7-7-7-7-9-9-9-9-7-7-7-7--|
A|--7-7-7-7-7-7-7-7-7-7-7-7-5-5-5-5--|
E|--5-5-5-5-5-5-5-5------------------|

prechorus
e|-------------------------------|
B|-------------------------------|
G|--------------9-9-9-9-7-7-7-7--|
D|--------------9-9-9-9-7-7-7-7--|
A|--7-7--7-7----7-7-7-7-5-5-5-5--|
E|--5-5--5-5---------------------|

chorus
e|-----------------|----------------|
B|-----------------|----------------|
G|-------9--7------|----------------|
D|--7----9--7---x3-|--7(let ring)---| and then quickly to preverse
A|--7----7--5------|--7-------------|
E|--5--------------|--5-------------|

outro
e|--------------------|
B|--------------------|
G|--------------------|
D|-----------------7--|
A|--7-7--7-7--7-7--7--|
E|--5-5--5-5--5-5--5--|

16.VIKING

e|-----------------3------2------|
B|--2---2-------1--3------3------|
G|--2---0-------0--0--0---2------|
D|--2---2-------2--0--0----------|
A|--------------3--2--0----------|
E|-----------------3-------------|
Tap to rate this tab
# A B C D E F G H I J K L M N O P Q R S T U V W X Y Z