Song name
# A B C D E F G H I J K L M N O P Q R S T U V W X Y Z

Lars Frederiksen And The Bastards - My Life To Live tab

----------------------------------------------------------------------------
			     My Life To Live - L.F.A.T.B.
----------------------------------------------------------------------------
Tabbed by:Matt Dale
Email: wrdales@comcast.net

Tuning: standard

e|-------------------------------------------------------------------------|
B|-------------------------------------------------------------------------|
G|-------6-7-------9-------------------------------------------------------|
D|--7-7--6-7--7-7--9--7----------------------------------------------------|
A|--7-7--4-5--7-7--7--7----------------------------------------------------|
E|--5-5-------5-5-----5----------------------------------------------------|


| /  slide up
| \  slide down
| h  hammer-on
| p  pull-off
| ~  vibrato
| +  harmonic
| x  Mute note
============================================================================
Tap to rate this tab
# A B C D E F G H I J K L M N O P Q R S T U V W X Y Z