Song name
# A B C D E F G H I J K L M N O P Q R S T U V W X Y Z

Last Dinosaurs - Zoom tab

Sorry only got the main riff and the start of the verse.

Main Riff

e|------------------------------------------------------------|
B|------------------------------------------------------------|
G|---------7--------------------------------------------------|
D|-----------9--9--9--10-9-------------9-7--7--7--9-----------|
A|--7-9-10----------------------7-9-10--------------9---------|
E|------------------------------------------------------------|



e|------------------------------------------------------------|
B|------------------------------------------------------------|
G|------------------------------------------------------------|
D|---------7-9----------9--------------7-9----------9---------|
A|--7-9-10------9--9--9---------7-9-10------9--9--9-----------|
E|------------------------------------------------------------|






and the palm muting in the start of the verse is


e|------------------------------------------------------------|
B|------------------------------------------------------------|
G|------------------------------------------------------------|
D|--7------7------9------9------7------7------9---------------|
A|-----10-----10-----10------------10-----10-----7--7---------|
E|------------------------------------------------------------|

You play that 3 times, on the last time instead of finishing with 7, finish with 9 and 
don't palm mute.
Tap to rate this tab
 
# A B C D E F G H I J K L M N O P Q R S T U V W X Y Z