Song name
# A B C D E F G H I J K L M N O P Q R S T U V W X Y Z

Laura Marling - Little Bird tab

Laura Marling - Little Bird

Tuning: DGDGBD (low to high), Open G

I'll mostly just tab chord patterns. More than that isn't necessary for a lot of this.
It'd take ages to tab out all the plucking and stuff when it's easy enough to figure out 
from the chord patterns.

Intro

d|---------------0---------|
B|-7-------0-------0-------|
G|---9-6-7-----0-----0-----|
D|-----------0---------0---|
G|-0-------0-------------0-|
D|-------------------------|  x 3

(Second and third times are a slight variation on the open string plucking)

Verse
   Oh Rosie....
d|---------------0---------|
B|-7-------0-------0-------|
G|---9-6-7-----0-----0-----|
D|-----------0---------0---|
G|-0-------0-------------0-|
D|-------------------------| x 2

   I couldn't save you...
d|-----------------------------|
B|-7-------7-------7-------7---|
G|---9-6-7---9-6-7---9-6-7---9~|
D|-----------------------------|
G|-0-------0-------0-------0---|
D|-----------------------------|

Riff

d|-9-12--9-12-9-7-----------|
B|-8-12--8-12-8-7-7-5--4--3-|
G|----------------7-5--5--4-|
D|--------------------------|
G|-0-0---0-0--0-0-0-0--0--0-|
D|--------------------------|



Chorus
      Little bird...
d|-------------------------------|
B|-2~----------------0-2-3-5-7-7-|
G|-2~----------------0-2-4-6-7-7-|
D|-------------------------------|
G|-0~-----------------0-0-0-0----|
D|-------------------------------|  x 2

   With a feather in my wing....
d|--------------------------|
B|-3--------------5---------|
G|-3--------------5---------|
D|-3--------------5---------|
G|-3--------------5---------|
D|--------------------------| x 4

That's all the necessary parts. Here they are in chronological order:

Intro
Verse
Riff
Verse
Riff
Chorus
Riff
Chorus
Riff
Verse
Riff
Chorus
Riff
Chorus
Riff
Chorus
Riff
Chorus
Riff

That should be all. Feedback welcome.

Cheers,
Sam
Tap to rate this tab
# A B C D E F G H I J K L M N O P Q R S T U V W X Y Z