Song name
# A B C D E F G H I J K L M N O P Q R S T U V W X Y Z

Leagues - Spotlight tab

Leagues - Spotlight
Tuning: Standard

corrections or suggestions welcomed.

e|-10-10-10--10-121212----10-10-10--10-121212----------------------|
B|-11-11-11--11-131313----10-10-10--10-131313----------------------|
G|-12-12-12--12-141414----10-10-10--10-141414----------------------| x2
D|-12-12-12--12-141414----12-12-12--12-141414----------------------|
A|-----------------------------------------------------------------|
E|-----------------------------------------------------------------|
          x2         then      x2


e|-------------------------------------------------------------------|
B|-------------------------------------------------------------------|
G|-------------------------------------------------------------------|
D|---------------------------------------------------3---------------| 
A|-10-10-10-----8-8-8--10-10-10-10101212----5-5-5--55-5-3-3-3-33-----|
E|---------------------------------------------------------------65--|
       x2        x2
All palm muted


e|-10-10-10--10-101010---10-10-10--10-101010---10-10-10--10-101010-------------------|
B|-11-11-11--11-111111---10-10-10--10-101010---10-10-10--10-101010---7-7-7-7--7-777--|
G|-12-12-12--12-121212---10-10-10--10-101010---10-10-10--10-101010---8-8-8-8--8-888--| x2
D|-12-12-12--12-121212---12-12-12--12-121212---12-12-12--12-121212---9-9-9-9--9-999--|
A|---------------------------------------------12-12-12--12-121212---9-9-9-9--9-999--|
E|-----------------------------------------------------------------------------------|



e|-10-10-10--10-121212----10-10-10--10-121212----------------------|
B|-11-11-11--11-131313----10-10-10--10-131313----------------------|
G|-12-12-12--12-141414----10-10-10--10-141414----------------------|
D|-12-12-12--12-141414----12-12-12--12-141414----------------------|
A|-----------------------------------------------------------------|
E|-----------------------------------------------------------------|
          x2         then      x2


e|----------------------------------------------------------------------------------------------|
B|----------------------------------------------------------------------------------------------|
G|----------------------------------------------------------------------------------------------|
D|------------------------------------------------------------------------------3---------------| 
A|-10-10-10-10101212--8-8-8-881212-8-8-8-88121212--10-10-10-10101212---5-5-5--55-5-3-3-3-33-----|
E|------------------------------------------------------------------------------------------65--|
        x2
All palm muted

e|-10-10-10--10-101010---10-10-10--10-101010---10-10-10--10-101010-------------------|
B|-11-11-11--11-111111---10-10-10--10-101010---10-10-10--10-101010---7-7-7-7--7-777--|
G|-12-12-12--12-121212---10-10-10--10-101010---10-10-10--10-101010---8-8-8-8--8-888--| x2
D|-12-12-12--12-121212---12-12-12--12-121212---12-12-12--12-121212---9-9-9-9--9-999--|
A|---------------------------------------------12-12-12--12-121212---9-9-9-9--9-999--|
E|-----------------------------------------------------------------------------------|



e|-10-13-10--------------------------1010--------------------------|
B|---------13-10---------------------1010--------------------------|
G|--------------12-10---------101210-1010--------------------------|
D|-------------------12--------------------------------------------|
A|-----------------------------------------------------------------|
E|-----------------------------------------------------------------|
             x3               then x1


e|-10-13-10--------------------------xxx1010^----------------------|
B|---------13-10---------------------xxx1010^----------------------|
G|--------------12-10---------101210-xxx1010^----------------------|
D|-------------------12--------------------------------------------|
A|-----------------------------------------------------------------|
E|-----------------------------------------------------------------|
             x3                then x1



e|-10-13-10--------------------------101010-1010-10----------------|
B|---------13-10---------------------101010-1010-10----------------|
G|--------------12-10---------101210-101010-1010-10----------------|
D|-------------------12--------------------------------------------|
A|-----------------------------------------------------------------|
E|-----------------------------------------------------------------|
             x3                then x1



e|-10-13-10--------------------1010--------------------------------|
B|---------13-10---------------1010--------------------------------|
G|--------------12-10----------1010--------------------------------|
D|-------------------12--------------------------------------------|
A|-----------------------------------------------------------------|
E|-----------------------------------------------------------------|
             x3            then x1 (quietly)



e|-10-10-10--10-101010----10-10-10--10-101010----------------------|
B|-11-11-11--11-111111----10-10-10--10-101010----------------------|
G|-12-12-12--12-121212----10-10-10--10-101010----------------------| Until the end
D|-12-12-12--12-121212----12-12-12--12-121212----------------------|
A|-----------------------------------------------------------------|
E|-----------------------------------------------------------------|
 |         x2         then      x2
 |
 |
e|-10-13-10-----------------------------10-13-10------------------------------|
B|---------13-10--------------------------------13-10-------------------------|
G|--------------12-10---------101210------------------12-10------12-10--------| 
D|-------------------12------------------------------------12---------12-10---| 
A|-------------------------------------------------------------------------10-|
E|----------------------------------------------------------------------------|
        x4                  then x1            x3
Jumps in after the 2nd play through

************************************

| /   slide up
| \   slide down
| h   hammer-on
| -   Palm Mute
| p   pull-off
| ~   vibrato
| +   harmonic
| x   Mute note
| b   Bend
| pb  Pre-bend
| br  Bend release
| pbr Pre-bend release
| brb Bend release bend

************************************
Tap to rate this tab
 
# A B C D E F G H I J K L M N O P Q R S T U V W X Y Z