Song name
# A B C D E F G H I J K L M N O P Q R S T U V W X Y Z

Led Zeppelin - Communication Breakdown tab

    --------------------------------------------------------------

    LED ZEPPELIN - COMUNICATION BREAKDOWN (Page/Jones/Bonham) From
                   LED ZEPPELIN album. Released on January 12th
                   1969
   
    --------------------------------------------------------------

    Tabbed by:PJVillanueva 




              
    Hey, girl, stop what you're doin'! 
    Hey, girl, you'll drive me to ruin. 
    I don't know what it is I like about you, but I like it a lot. 
    Won't let me hold you, Let me feel your lovin' charms.
 
    Communication Breakdown, It's always the same, 
    I'm having a nervous breakdown, Drive me insane! 

    Hey, babe, I got something I think you ought to know. 
    Hey, babe, I wanna tell you that I love you so. 
    I wanna hold you in my arms, yeah! 
    I'm never gonna let you go, 'Cause I like your charms.
 
    Communication Breakdown, It's always the same, 
    I'm having a nervous breakdown, Drive me insane! 
                
                      SOLO
 
    Communication Breakdown, It's always the same, 
    I'm having a nervous breakdown, Drive me insane! 
             
    Communication breakdown .... I want you to love me
    I want your love ....



    INTRO
    E                                   Dsus2       A       Dsus2
  e|------- ------- ------- -------|----5-- ------- 5------ 5------|
  B|-------------------------------|----5-----------5-------5------|
  G|-------------------------------|----7-----------6-------7------|
  D|-------------------------------|----7-----------7-------7------|
  A|-------------------------------|----5-----------7-------5------|
  E|0---0---0---0---0---0---0---0--|0---------------5--------------| x 4


    VERSE
    00:11

  e|------- ------- ------- -------|----5-- ------- 5------ 5------|
  B|-------------------------------|----5-----------5-------5------|
  G|-------------------------------|----7-----------6-------7------|
  D|-------------------------------|----7-----------7-------7------|
  A|-------------------------------|----5-----------7-------5------|
  E|0---0---0---0---0---0---0---0--|0---------------5--------------|
    Hey                             girl                    stop 



  e|------- ------- ------- -------|----5-- ------- 5------ 5------|
  B|-------------------------------|----5-----------5-------5------|
  G|-------------------------------|----7-----------6-------7------|
  D|-------------------------------|----7-----------7-------7------|
  A|-------------------------------|----5-----------7-------5---7--|
  E|0---0---0---0---0---0---0---0--|0---------------5-----------5--|
    what        doin'! 
        you're 


    00:17
    Hey, girl, you'll drive me to ruin. 
    I don't know what it is I like about you, but I like it a lot. 
    Won't let me hold you, Let me feel your lovin' charms.


    CHORUS
    00:33
    A5                          A7          A6  A5 ....
  e|------- ------- ------- ----5--|----5-- ------- ------- ----5--|
  B|----------------------------5--|----5-----------------------5--|
  G|----------------------------6--|----6-----------------------6--|
  D|----------------------------5--|----5-----------------------5--|
  A|7---7---9---7---7---7---7---7--|----7---9---7---7---7-------7--|
  E|5---5---5---5---5---5---5---5--|----5---5---5---5---5-------5--|

  e|------- ------- ------- ----5--|------- ------- ------- ----5--|
  B|----------------------------5--|----------------------------5--|
  G|----------------------------6--|----------------------------6--|
  D|----------------------------5--|----------------------------5--|
  A|----------------------------7--|----------------------------7--|
  E|----------------------------5--|----------------------------5--|
                Communication                   breakdown



  e|----5-- ------- ------- ----5--|----5-- ------- ------- -------|
  B|----5-----------------------5--|----5--------------------------|
  G|----6-----------------------6--|----6--------------------------|
  D|----5-----------------------5--|----5--------------------------|
  A|----7---9---7---7---7-------7--|----7---9---7---7---7---9---7--|
  E|----5---5---5---5---5-------5--|----5---5---5---5---5---5---5--|

  e|------- ------- ------- ----5--|------- ------- ------- -------|
  B|----------------------------5--|-------------------------------|
  G|----------------------------6--|-------------------------------|
  D|----------------------------5--|-------------------------------|
  A|----------------------------7--|-------------------------------|
  E|----------------------------5--|-------------------------------|
                It's        the same
                    always

    00:39
    B5      B6  B5              B7 ....
  e|------- ------- ------- ----7--|----7-- ------- ------- ----7--|
  B|----------------------------7--|----7-----------------------7--|
  G|----------------------------8--|----8-----------------------8--|
  D|----------------------------7--|----7-----------------------7--|
  A|9---9--11---9---9---9-------9--|----9--11---9---9---9-------9--|
  E|7---7---7---7---7---7-------7--|----7---7---7---7---7-------7--|

  e|------- ------- ------- ----7--|------- ------- ------- ----7--|
  B|----------------------------7--|----------------------------7--|
  G|----------------------------8--|----------------------------8--|
  D|----------------------------7--|----------------------------7--|
  A|----------------------------9--|----------------------------9--|
  E|----------------------------7--|----------------------------7--|
                    Having  a   nervous         breakdown 



  e|----7-- ----7-- ------- ----7--|------- ------- ------- -------|
  B|----7-------7---------------7--|-------------------------------|
  G|----8-------8---------------8--|-------------------------------|
  D|----7-------7---------------7--|-------------------------------|
  A|----9--11---9---9---9-------9--|----9--11---9---9---9---9---9--|
  E|----7---7---7---7---7-------7--|----7---7---7---7---7---7---7--|

  e|----7-- ------- ------- ----7--|------- ------- ------- -------|
  B|----7-----------------------7--|-------------------------------|
  G|----8-----------------------8--|-------------------------------|
  D|----7-----------------------7--|-------------------------------|
  A|----9-----------------------9--|-------------------------------|
  E|----7-----------------------7--|-------------------------------|
                    Drive   insane!
                        me


  e|------- ------- ------- -------|----5-- ------- 5------ 5------|
  B|-------------------------------|----5-----------5-------5------|
  G|-------------------------------|----7-----------6-------7------|
  D|-------------------------------|----7-----------7-------7------|
  A|-------------------------------|----5-----------7-------5------|
  E|0---0---0---0---0---0---0---0--|0---------------6--------------| x 2


    VERSE
    00:50

  e|------- ------- ------- -------|----5-- ------- 5------ 5------|
  B|-------------------------------|----5-----------5-------5------|
  G|-------------------------------|----7-----------6-------7------|
  D|-------------------------------|----7-----------7-------7------|
  A|-------------------------------|----5-----------7-------5------|
  E|0---0---0---0---0---0---0---0--|0---------------6--------------|

  e|------- ------- ------- -------|------- ------- ------- -------|
  B|-------------------------------|-------------------------------|
  G|9---9--------9------9-------9--|9---7-----------7-------7------|
  D|9---9--------9------9-------9--|9---7-----------7-------7------|
  A|7---7--------7------7-------7--|7---5-----------5-------5------|
  E|-------------------------------|-------------------------------|
    Hey                                 babe            I       got



  e|------- ------- ------- -------|----5-- ------- 5------ 5------|
  B|-------------------------------|----5-----------5-------5------|
  G|-------------------------------|----7-----------6-------7------|
  D|-------------------------------|----7-----------7-------7------|
  A|-------------------------------|----5-----------7-------5------|
  E|0---0---0---0---0---0---0---0--|0---------------6--------------|

  e|------- ------- ------- -------|------- ------- ------- -------|
  B|-------------------------------|-------------------------------|
  G|9---9--------9------9-------9--|----7--------------------------|
  D|9---9--------9------9-------9--|----7-----------5-------4------|
  A|7---7--------7------7-------7--|----5-----------5-------5------|
  E|-------------------------------|-------------------------------|
        something   think   ought know.
                I       you     to


    00:55
    Hey, babe, I wanna tell you that I love you so. 
    I wanna hold you in my arms, yeah!
    I'm never gonna let you go,'Cause I like your charms. 


    CHORUS
    01:12

  e|------- ------- ------- ----5--|----5-- ------- ------- ----5--|
  B|----------------------------5--|----5-----------------------5--|
  G|----------------------------6--|----6-----------------------6--|
  D|----------------------------5--|----5-----------------------5--|
  A|7---7---7---7---7---7---7---7--|----7---9---7---7---7-------7--|
  E|5---5---5---5---5---5---5---5--|----5---5---5---5---5-------5--|

  e|------- ------- ------- ----5--|------- ------- ------- ----5--|
  B|----------------------------5--|----------------------------5--|
  G|----------------------------6--|----------------------------6--|
  D|----------------------------7--|----------------------------7--|
  A|7---7---9---7---7---7-------7--|----7---9---7---7---7-------7--|
  E|5---5---5---5---5---5-------5--|----5---5---5---5---5-------5--|
                Communication                   breakdown



  e|----5-- ------- ------- ----5--|----5-- ------- ------- -------|
  B|----5-----------------------5--|----5--------------------------|
  G|----6-----------------------6--|----6--------------------------|
  D|----5-----------------------5--|----5--------------------------|
  A|----7---9---7---7---7-------7--|----7---9---7---7---7---9---7--|
  E|----5---5---5---5---5-------5--|----5---5---5---5---5---5---5--|

  e|------- ------- ------- ----5--|------- ------- ------- -------|
  B|----------------------------5--|-------------------------------|
  G|----------------------------6--|-------------------------------|
  D|----------------------------7--|-------------------------------|
  A|----7---9---7---7---7-------7--|----7---9---7---7---7---9---7--|
  E|----5---5---5---5---5-------5--|----5---5---5---5---5---5---5--|
                It's        the same
                    always
   

  e|------- ------- ------- ----7--|----7-- ------- ------- ----7--|
  B|----------------------------7--|----7-----------------------7--|
  G|----------------------------8--|----8-----------------------8--|
  D|----------------------------7--|----7-----------------------7--|
  A|9---9--11---9---9---9-------9--|----9--11---9---9---9-------9--|
  E|7---7---7---7---7---7-------7--|----7---7---7---7---7-------7--|

  e|------- ------- ------- ----7--|------- ------- ------- ----7--|
  B|---------------------------10--|---------------------------10--|
  G|----------------------------8--|----------------------------8--|
  D|----------------------------7--|----------------------------7--|
  A|9---9--11---9---9---9-------9--|----9--11---9---9---9-------9--|
  E|7---7---7---7---7---7-------7--|----7---7---7---7---7-------7--|
                    Having  a   nervous         breakdown 



  e|----7-- ------- ------- ----7--|----7-- ------- ------- -------|
  B|----7-----------------------7--|----7--------------------------|
  G|----8-----------------------8--|----8--------------------------|
  D|----7-----------------------7--|----7--------------------------|
  A|----9--11---9---9---9--11---9--|----9-----------------------9--|
  E|----7---7---7---7---7---7---7--|----7-----------------------7--|

  e|------- ------- ------- ----7--|----7-- ------- ------- -------|
  B|---------------------------10--|---10--------------------------|
  G|----------------------------8--|----8--------------------------|
  D|----------------------------7--|----7--------------------------|
  A|----9--11---9---9---9-------9--|----9--------------------------|
  E|----7---7---7---7---7-------7--|----7--------------------------|
                    Drive   insane!
                        me

                                                            x

  e|------- ------- ------- -------|------- ------- ------- -------|
  B|-------------------------------|-------------------------------|
  G|-------------------------------|-------------------------------|
  D|9-\----------------------------|-------------------------------|
  A|7-\----------------------------|-------------------------------|
  E|0------------------------------|-------------------------------|


    SOLO
    01:25

  e|----12- --P---- ----12- -------|----12- ------- ----12- -------|
  B|--------1512------------151215-|--------151212----------15121212
  G|1416--------14--1416------P----|1416------P-----1416-----------|
  D|--B---------------B------------|--B---------------B------------|
  A|-------------------------------|-------------------------------|
  E|-------------------------------|-------------------------------|



  e|----12- ------- ---12-- -------|12--12- ---12-- ------- -------|
  B|--------15121212-----12-151212-|12--12-----12-------------P----|
  G|1416------------1416-----------|14161416---1416---------1412---|
  D|--B----------------------------|--B---B------B--------------14-|
  A|-------------------------------|-------------------------------|
  E|-------------------------------|-------------------------------|



  e|------- ------- ------- -------|12----- 12----- 12--12- ---1517|
  B|----------------------------12-|----15------15---------------B-|
  G|14--12--------------12--1416---|-------------------------------|
  D|--------14--12--14-------------|-------------------------------|
  A|-------------------------------|-------------------------------|
  E|-------------------------------|-------------------------------|



  e|------- 15-~--- 12----- 12-----|------- 12----- ------- -------|
  B|--------------------15---------|----12------------P------------|
  G|---------------------------1416|-----------1416R1412----14--12-|
  D|-----------------------------B-|-------------B------14---------|
  A|-------------------------------|-------------------------------|
  E|-------------------------------|-------------------------------|



  e|------- 9------ 9------ 9------|------- ------- ------- -------|
  B|----9-------12------12---------|-------------------------------|
  G|---------------------------1113R11P911------9-------9---9---11B|
  D|-----------------------------B-|----------------11-------------|
  A|-------------------------------|-------------------------------|
  E|-------------------------------|-------------------------------|



  e|------- ------- ------- -------|----10- ------- 10----- -------|
  B|----12-----------------------10B12------10-B-12----1012R10P8---|
  G|13------11P9----10--9---9------|-----------------------------9-|
  D|------------11-----------------|-------------------------------|
  A|-------------------------------|-------------------------------|
  E|-------------------------------|-------------------------------|



  e|------- ------- ------- -------|----7/9 ----9-- 9-\-7-- 7------|
  B|10--8--------------------------|----7/9-----9---9-\-7---7------|
  G|--------9---7---9--------------|----7/9-----9---9-\-7---7------|
  D|-------------------------------|----7/9-----9---9-\-7---7------|
  A|-------------------------------|-------------------------------|
  E|--------------------0-------0--|-------------------------------|

    CHORUS
    01:44

  e|------- ------- ------- -------|------- ------- ------- -------|
  B|--------9-------10------11-----|----12------13------14------15-|
  G|1113-------1214----1315--------|1416----1517----1618----1719---|
  D|--B----------B-------B---------|--B-------B-------B-------B----|
  A|-------------------------------|-------------------------------|
  E|-------------------------------|-------------------------------|
                Communication                   breakdown


                                                      B R
  e|------- ------- ------- -------|------- 171817- 151615- -------|
  B|----16------17--17--17--17--17-|17--17----B-R-----------17--15-|
  G|1820----1921-------------------|-------------------------------|
  D|--B-------B--------------------|-------------------------------|
  A|-------------------------------|-------------------------------|
  E|-------------------------------|-------------------------------|
                It's        the same
                    always
                           
                                      
  e|--19B22 ------- ------R 19--18-|17--15- 14----- ------- -----B-|
  B|17-----------------------------|------------17--17------17-2022|
  G|-------------------------------|--------------------18---------|
  D|-------------------------------|-------------------------------|
  A|-------------------------------|-------------------------------|
  E|-------------------------------|-------------------------------|
                    Having  a   nervous         breakdown 



  e|------- ------- ------- -------|------- ------- ------- -------|
  B|---2021-17------17--19--17-----|17--19--17------17--19--17-----|
  G|-----B------18--------------18-|------------18--------------18-|
  D|-------------------------------|-------------------------------|
  A|-------------------------------|-------------------------------|
  E|-------------------------------|-------------------------------|
                    Drive   insane!
                        me
    CODA
    01:55

  e|------- ------- ------- -------|----5-- ------- 5------ 5------|
  B|-------------------------------|----5-----------5-------5------|
  G|-------------------------------|----7-----------6-------7------|
  D|-------------------------------|----7-----------7-------7------|
  A|-------------------------------|----5-----------7-------5------|
  E|0---0---0---0---0---0---0---0--|0---------------5--------------| 

  e|------- ------- ------- -------|------- ------- ------- -------|
  B|17-----------------------------|-------------------------------|
  G|-------------------------------|-------------------------------|
  D|-------------------------------|-------------------------------|
  A|-------------------------------|-------------------------------|
  E|-------------------------------|-------------------------------|



  e|------- ------- ------- -------|----5-- ------- 5------ 5------|
  B|-------------------------------|----5-----------5-------5------|
  G|-------------------------------|----7-----------6-------7------|
  D|-------------------------------|----7-----------7-------7------|
  A|-------------------------------|----5-----------7-------5------|
  E|0---0---0---0---0---0---0---0--|0---------------5--------------| ....
                                                    Yeah!


    02:01
    Communication breakdown .... I want you to love me all night
    I want .... I want your love Yeah ....






        B  Bend
        R  Release
        /  Slide up
        \  Slide down
        H  Hammer-on
        P  Pull-off
        ~  Vibrato
        +  Harmonic
        x  Mute note
        .  Play note like a dot in standard notation
        ^  Ties two notes together
        (. Pause



Tap to rate this tab
 
# A B C D E F G H I J K L M N O P Q R S T U V W X Y Z