Song name
# A B C D E F G H I J K L M N O P Q R S T U V W X Y Z

Led Zeppelin - Travelling Riverside Blues tab


                 Travelling Riverside Blues - Led Zeppelin
                 -----------------------------------------

Key
---

/  - Slide using a slide
s  - Slide with your finger
h  - Hammer on
p  - Pull off
pb - Pre-Bend
b  - bend
M  - Muted Notes

I don't think I used anymore and please remember to drop your high E by
two semi-tones to a D!



12-String Guitar (with slide) Tablature
----------------------------------------

D---/-12-12-12-12---12-\----0-0-3-5---3-0----------------------------------
B---/-12-12-12-12---12-\----0-0-3-5---3-0----------3-------3------3------3-
G---/-12-12-12-12---12-\----0-0-3-5---3-0--------0-------0------0------0---
D----------------------------------------------3------2-------0------------
A-------------------------------------------------------------------3------
E--------------------------------------------------------------------------
  Fade in


D----------/--12-12-12-12---12--\------0-3-5---3-0-------------------------
B----------/--12-12-12-12---12--\------0-3-5---3-0-------3-----3----3-----3
G----------/--12-12-12-12---12--\------0-3-5---3-0-----0-----0----0-----0--
D----------------------------------------------------3-----2----0----------
A--1h2----------------------------------------------------------------3----
E------3-------------------------------------------------------------------

D-------------/--12-12-12-12---12--\------0-3-5---3-0----------------------
B-------------/--12-12-12-12---12--\------0-3-5---3-0--------3-----3-----3-
G-------------/--12-12-12-12---12--\------0-3-5---3-0------0-----0-----0---
D-------0------------------------------------------------3-----2-----0-----
A--1h2---------------------------------------------------------------------
E--------------------------------------------------------------------------


D-----------------
B-------3---------
G----0------------
D--------------0--
A-3--------1h2----
E-----------------

D---/--12-12-12-12---12--\------0-3-5---3-0------------------------------
B---/--12-12-12-12---12--\------0-3-5---3-0--------3-----3-----3-----3---
G---/--12-12-12-12---12--\------0-3-5---3-0------0-----0-----0-----0-----
D----------------------------------------------3-----2-----0-------------
A----------------------------------------------------------------3-------
E------------------------------------------------------------------------
                     That's  Right!

                                                           
D---------------------------------------------------------3--
B-------3-------------------------------------------------3--
G----0----------------0--------0---------0----------------0--
D--------------0------0--0--0--2---2--2--3----3--3----2---0--
A-3--------1h2-----------------------------------------------
E------------------------------------------------------------
                          M  M      M  M       M  M
                                  Now Sweet Ma-Ma let____ me

D----------------------------------------3--
B----------------------------------------3--
G----0--------0---------0----------------0--
D----0--0--0--2---2--2--3----3--3----2---0--
A-------------------------------------------
E-------------------------------------------
        M  M      M  M       M  M
              Be your kid_____ cos  Then__



D----------------------------------------3--
B----------------------------------------3--
G----0--------0---------0----------------0--
D----0--0--0--2---2--2--3----3--3----2---0--
A-------------------------------------------
E-------------------------------------------
        M  M      M  M       M  M
              you might get hurt  if you do you'll



D----------------------------------------3--
B----------------------------------------3--
G----0--------0---------0----------------0--
D----0--0--0--2---2--2--3----3--3----2---0--
A-------------------------------------------
E-------------------------------------------
        M  M      M  M       M  M
              a keep it  hid well  I______


D-----------------5------------5--5----------
B-----------------5------------5--5----------
G-------5-----5---5------------5--5----------
D--------------------------------------------
A--5h7---------------------------------------
E--------------------------------------------

                  I know my ba-----by----


D----5------------5------------5--5----------
B----5------------5------------5--5----------
G----5--5-----5---5------------5--5----------
D--------------------------------------------
A--------------------------------------------
E--------------------------------------------

      If I see her     in   the dark            


D----------------------------------------3--
G----------------------------------------3--
G----0--------0---------0----------------0--
D----0--0--0--2---2--2--3----3--3----2---0--    (play twice)
A-------------------------------------------
E-------------------------------------------
        M  M      M  M       M  M
             



D---0----0---0---0--0----0--------/-5---5--5--0-/-3--/-3--
B---1----0---1---0--0----1--------/-5---5--5--0-/-3--/-3--
G---2----2---2---2--2----2--------/-5---5--5--0-/-3--/-3--
D---0----0---0--------------------------------------------
A---------------------------------------------------------
E---------------------------------------------------------

    I said I know my Ri--der     If I see her in the dark___.

D--0----0-------0------0------0---------0--------0---------0--
B--0----0-----3-----3-----------------3-----------------------
G--0----0-----------------------------------------------------
D-------0---3-------2--2---1-----1----0----------0---------0--
A-------------------------------------------------------------
E------------------------------------------3/5----------------

(The whole song repeats twice then this happens)

D---/-12-12-12-12---12-\----0-0-3-5---3-0----------------------------------
B---/-12-12-12-12---12-\----0-0-3-5---3-0----------3-------3------3------3-
G---/-12-12-12-12---12-\----0-0-3-5---3-0--------0-------0------0------0---
D----------------------------------------------3------2-------0------------
A-------------------------------------------------------------------3------
E--------------------------------------------------------------------------
  


D---------
B---------
G---------
D------0--  (Play four times)
A--1h2----
E---------

Okay I've given all the main 12 string acoustic riffs now so you can
work out what fits where I think I have it just about right. All that's
left now is the solo on 6 String Electric.



Electric Guitar Solo
---------------------

D------------------------------------------------------------------------
B------------------------------------------------------------------------
G---pb15b14--12-------12--pb16b14--12-----12--14b15b14-12-----12--14b16---
D----------------14-------------------14------------------14-------------
A------------------------------------------------------------------------
E------------------------------------------------------------------------


D----------12------------------------------------------------------------
B--13--14----------------------------------------------------------------
G---------------12--pb16b14--12------12--pb15b14--12------12--pb16b14-----
D--------------------------------14-------------------14-----------------
A------------------------------------------------------------------------
E------------------------------------------------------------------------

D-------------------------12----------------------------------------------
B----------------------------15b17-15-------------------------------------
G--12------12--14--14b16--------------12-----pb15-------------------------
D------14-----------------------------------------------------------------
A-------------------------------------------------------------------------
E-------------------------------------------------------------------------

D-----------5--3-------------------------------------5-----------------
B--------3--------3h6p3-----3------------------------------------------
G---pb7------------------6-----6--5--3-----3---5b7------pb7b5--3----3--
D---------------------------------------5------------------------5-----
A----------------------------------------------------------------------
E----------------------------------------------------------------------

D---------------------------------------------------------------------
B-------3------------8--10b12--8--10---------------------------15b17--
G--4---------7----9-------------------9--7------7----------12---------
D-------------------------------------------10------12s14-------------
A---------------------------------------------------------------------
E---------------------------------------------------------------------
   Won't you come in my kitchen?

D-12---------------------------------------------------------------------
B-----14--13--11h13--11------------------------------------------3--6p3--
G-----------------------14-12-----14p12-----12-----12--14---5b7----------
D-----------------------------14--------14-----14------------------------
A------------------------------------------------------------------------
E------------------------------------------------------------------------

D-------------------------------------------------------------------------
B-----3--6p3--------3-6p3--------------------------------------------------
G-5b7----------5b7---------5--5p3--5p3--5p3--------------------------------
D--------------------------------------------5p3---------------------------
A-------------------------------------------------5p3h5---3p1-------1--3s5-
E--------------------------------------------------------------3-3---------

D-----------------------------------------
B-----------------------------------------
G--------------------3--5p3h5p3--3--3--5--
D--3--5p3-----3-4-5-----------------------
A----------5------------------------------
E-----------------------------------------


There you go that's about it , let me know what you think. If anyone
spots any mistakes please tell me so I can correct it. Also don't forget
to drop by my page at www.houghton.demon.co.uk I've got loads of NEW
guitar tablature, lessons and audio examples. Okay then bye for now

Peter Matthews...
Tap to rate this tab
# A B C D E F G H I J K L M N O P Q R S T U V W X Y Z