Guitaretab - guitar tabs
Song name
# A B C D E F G H I J K L M N O P Q R S T U V W X Y Z

Led Zeppelin - Dazed & Confused tab

DAZED AND CONFUSED
Led Zeppelin
"Led Zeppelin I"

(Page)

INTRO:
e-|----------------------------|-----------------------|---------------------|
B-|----------------------------|-----------------------|---------------------|
G-|----------------------------|-----------------------|---------------------|
D-|-------5----4----3----2-----|-----------------------|---------------------|
A-|----------------------------|--5----4----3----2-----|--5----4----3----2---|
E-|---0----------------------0-|---------------------0-|---------------------|

   (natural harmonics - vibrate w/ whammy bar)
e-|----12-----5----------------12------5-------------|
B-|-12------5---------------12-------5---------------|
G-|-------------12vvvvvv------------------5vvvvvv----|
D-|--------------------------------------------------|
A-|--------------------------------------------------|
E-|--------------------------------------------------|

VERSE:
e-|-----------------------------------|----------------------------------|
B-|-----------------------------------|----------------------------------|
G-|-----------------------------------|----------------------------------|
D-|-----------------------------------|--------5------4------3------2----|
A-|---------5------4------3------2----|----------------------------------|
E-|--0--------------------------------|-0--------------------------------|
		     Been dazed and con fused for so long it's not true.

e-|-----------------------------------|---------------------------------------|
B-|-----------------------------------|---------------------------------------|
G-|-----------------------------------|---------------------------------------|
D-|-----------------------------------|---------5-------4-------3------2------|
A-|---------5------4------3------2----|---------------------------------------|
E-|--0--------------------------------|-0-------------------------------------|
Wanted a woman never bargained for you. Lots of people talkin; few ofthem know

e-|-----------------------------------|------------------------------------|
B-|-----------------------------------|------------------------------------|
G-|-----------------------------------|------------------------------------|
D-|-----------------------------------|------------------------------------|
A-|---------5------4------3------2----|-------9b(10)----9--7b(8)---r7---7--|
E-|--0--------------------------------|-0--0-------------------------------|
   Soul of a woman was created below.

e-|------------------------------------|-----------------------------------|
B-|------------------------------------|-----------------------------------|
G-|------------------------------------|-----------------------------------|
D-|------------------------------------|-----------------------------------|
A-|--------4b(5)----4--2b(3)---r2---2--|------9b(10)----9--7b(8)---r7---7--|
E-|--0---------------------------------|--0--------------------------------|

e-|------------------------------------|-----------------------------------|
B-|------------------------------------|-----------------------------------|
G-|------------------------------------|-----------------------------------|
D-|------------------------------------|-----------------------------------|
A-|--------4b(5)----4--2b(3)---r2---2--|------9b(10)----9--7b(8)---r7---7--|
E-|--0---------------------------------|--0--------------------------------|
		        You hurt and abused, tellin all of your lies.

e-|------------------------------------|-----------------------------------|
B-|------------------------------------|-----------------------------------|
G-|------------------------------------|-----------------------------------|
D-|------------------------------------|-----------------------------------|
A-|--------4b(5)----4--2b(3)---r2---2--|------9b(10)----9--7b(8)---r7---7--|
E-|--0---------------------------------|--0--------------------------------|
 Runnin round baby, Lord how they hypnotize. Sweet little baby, I don't know
							where you've been.

e-|------------------------------------|-----------|
B-|------------------------------------|-----------|
G-|------------------------------------|-----------|
D-|------------------------------------|--4--4--4--|
A-|--------4b(5)----4--2b(3)---r2---2--|--2--2--2--|
E-|--0---------------------------------|-----------|
   Gonna love you, baby. Here I come again.

e-|--------------------------------------|-----------------------------------|
B-|--------------------------------------|-----------------------------------|
G-|-----2h4----------------2h4-----------|-----2h4----------------2h4--------|
D-|-2h4-----2h4-4-4-4--2h4-----2h4-4-4-4-|-2h4-----2h4-4-4-4--2h4-----2h4----|
A-|-------------2-2-2--------------2-2-2-|-------------2-2-2-----------------|
E-|--------------------------------------|---------------------------------0-|

e-|-----------------------------------|----------------------------------|
B-|-----------------------------------|----------------------------------|
G-|-----------------------------------|----------------------------------|
D-|-----------------------------------|--------5------4------3------2----|
A-|---------5------4------3------2----|----------------------------------|
E-|--0--------------------------------|-0--------------------------------|

VERSE:
Every day I work so hard bringin' home my hard-earned pay,
Try to love you baby, but you push me away.
Don't know where you're goin'; I don't know just where you've been.
Sweet little baby, I want you again.

SOLO:
e-|----------------------------------------------------------15\12----15\12---|
B-|---12--12-15\12--------12-15\12----------12-12-15\12-X-12-------12-------12|
G-|14b16------------14b16----------14-14b16-----------------------------------|
D-|---------------------------------------------------------------------------|
A-|---------------------------------------------------------------------------|
E-|---------------------------------------------------------------------------|

e-|15\12---15\12--15\12------12-15b17-15-12----12-----------------------------|
B-|------12-----12-----12-12-12-------------15-15-15\12-----------------------|
G-|-----------------------------------------------------14\12----12-14-12-14--|
D-|-----------------------------------------------------------14--------------|
A-|---------------------------------------------------------------------------|
E-|---------------------------------------------------------------------------|

e-|---------------------------------------------------------------------------|
B-|--------15-----------------------------------------------------------------|
G-|12-14b16----16\14\12-14\12---------------------------------!9!b!11!--9b11--|
D-|--------------------------14-12-14-12/14\12----12/14\12--0-----------------|
A-|--------------------------------------------14-----------------------------|
E-|---------------------------------------------------------------------------|

e-|---------------------------------------------------------------------------|
B-|---------------------------------------------------------------------------|
G-|---7-9-7-7-7\6-6\5-6-7\6-4-6\4\3-4-2-2\0-4-2\0---0-0-0b2--0-0b2-0-0b2-0-0b2|
D-|---------------------------------------------------------------------------|
A-|---------------------------------------------------------------------------|
E-|---------------------------------------------------------------------------|

e-|---------------------------------------------------------15\12-15-15b12----|
B-|------------------------------------------------------12-------12-12----12-|
G-|--0-0-0b4-0-0b2--0-0b4b4-0-0b2-0-0b4-0-0b3-0-0-b4r0------------------------|
D-|---------------------------------------------------------------------------|
A-|---------------------------------------------------------------------------|
E-|---------------------------------------------------------------------------|

e-|15\12----15\12----15--15\12-----15--15b17-15-17---15b17-15b17-15-12-----12-|
B-|------12-------12------------12-------------------------------------15-----|
G-|---------------------------------------------------------------------------|
D-|---------------------------------------------------------------------------|
A-|---------------------------------------------------------------------------|
E-|---------------------------------------------------------------------------|

e-|---------------------------------------------------------------------------|
B-|15\12--------------------------15------------------------------------------|
G-|-------14\12----12-14-12-14/16----16\14\12-14\12---------------------------|
D-|-------------14----------------------------------14-12/14\12----12-12------|
A-|-------------------------------------------------------------14----12/14\12|
E-|---------------------------------------------------------------------------|

e-|--------------------------------------------------------------------19b21--|
B-|----------------------------17b20---17b19-17b20--17b19-15-15--17-17--------|
G-|---------------------------------------------------------------------------|
D-|---------------------------------------------------------------------------|
A-|/14\12---------10--12-10---------------------------------------------------|
E-|------------12-------------------------------------------------------------|

e-|19\18--17------------------------------------------------------------------|
B-|----------20-20\17----17-20--17/20\17-----17-20-17/20\17-----17-20-17/20\17|
G-|-------------------19------------------19-----------------19---------------|
D-|---------------------------------------------------------------------------|
A-|---------------------------------------------------------------------------|
E-|---------------------------------------------------------------------------|

e-|---------------------------------------------------------------------------|
B-|----17-20-17/20\17----17-20-20b22--19b21-21b22-19b20-19b20b22--------20b22b|
G-|-19----------------19------------------------------------------------------|
D-|----------------------------------------------------------------0-0--------|
A-|---------------------------------------------------------------------------|
E-|---------------------------------------------------------------------------|

e-|-------------------------------------19b22r19----------19b22r19------------|
B-|24r20\17--17-17--20b24r20-17-17-17-17----------17-17-17----------17-17-17--|
G-|---------------------------------------------------------------------------|
D-|---------------------------------------------------------------------------|
A-|---------------------------------------------------------------------------|
E-|---------------------------------------------------------------------------|

e-|---------------------------------------------------------------------------|
B-|---17-20b23r20--17-17----17b20r17-15-15--15b17r15--------------------------|
G-|----------------------0--17-----------------------12-12----12b14r12-9-9--9-|
D-|---------------------------------------------------------------------------|
A-|---------------------------------------------------------------------------|
E-|---------------------------------------------------------------------------|

e-|---------------------------------------------------------------------------|
B-|-----------------------------------------------------4\2\0-------------!4!-|
G-|9b11-9b11r9--7--4b6r4--4--4\2\0-2--4\2\0-2--4\2\0-2--4\2\0-2--2--4--2---4--|
D-|-------------0-------------------------------------------------------------|
A-|---------------------------------------------------------------------------|
E-|---------------------------------------------------------------------------|

e-|---------------------------------------|
B-|----2/4\2\0----------------------------|
G-|----2/4\2\0--0--2\0/2\0/2--------------|
D-|--------------------------4\2\0--------|
A-|--------------------------------4\2\0--|
E-|---------------------------------------|

VERSE:
Been dazed and confused for so long, it's not true,
Wanted a woman, never bargained for you.
Take it easy baby, let them say what they will.
Will your tongue wag so much when I send you the bill?

[ Tab from: http://www.guitaretab.com/l/led-zeppelin/25044.html ]
Related for Dazed & Confused tab
Advertisement will be closed in 10 seconds