Song name
# A B C D E F G H I J K L M N O P Q R S T U V W X Y Z

Lee Ritenour - Rio Funk Part 2 tab

-------------------------------------------------------------------------------
			     rio funk 2nd movement - Lee Ritenour
-------------------------------------------------------------------------------
Tabbed by: Billy Sumagui
Email: batas_ko@yahoo.com
Tuning: standard
	A      F#m	   A	F#m		    Bm
e|-------------10----|--------------10-10---|--------------------------------|
B|-------10-12-------|-------10-12--------9-|---------8----------------------|
G|--9/12----------11-|--9/12----------------|-----7-9---7--------------------|
D|----------12-------|----------12----------|-7h9----------------------------|
A|-------------------|----------------------|--------------------------------|
E|-------------------|----------------------|--------------------------------|
			E
e|---------------------------------------------------------------------------|
B|--------------------7-7-7--------------------------------------------------|
G|---6---------5\4/7--------------------------------------------------------|
D|-9---9-9-------------------------------------------------------------------|
A|---------9-9---------------------------------------------------------------|
E|---------------------------------------------------------------------------|
						measure 206 variation
e|-------------------|-----------12-10-0-------[-----9-10-9------------------|
B|-------10-12--13---|----10-12----------------[----12------12-10------------|
G|-9/12------------11|--9----------------------[--11-------------9-----------|
D|----------12-------|-------12----------------[-------------------12-11-----|
A|-------------------|-------------------------[-----------------------------|
E|-------------------|-------------------------[-----------------------------|

e|-------------|-----------------|-------------------------------------------|
B|---------8---|-----------------|-------------------------------------------|
G|-----7-9---7-|---6-------------|--9-7--9--9--9-----------------------------|
D|-7h9---------|-9---9-9---6-----|-10---10-10-10-----------------------------|
A|-------------|---------9---9-9-|-------------------------------------------|
E|-------------|-----------------|-------------------------------------------|

e|----------------------------------10\--------------------------------------|
B|---------------8-8-8-8-9-10---8-----------back to ryhthm-------------------|
G|-9-7-7---9-7-7---------7--9-------12\--------------------------------------|
D|-------7---------------------10--------------------------------------------|
A|---------------------------------------------------------------------------|
E|---------------------------------------------------------------------------|

===============================================================================
Tap to rate this tab
 
# A B C D E F G H I J K L M N O P Q R S T U V W X Y Z