Song name
# A B C D E F G H I J K L M N O P Q R S T U V W X Y Z

Lee Ritenour - Rio Funk Part 1 tab

Help us improve GuitareTab! Take a short survey!
-------------------------------------------------------------------------------
			     RIO FUNK- Lee Ritenour
-------------------------------------------------------------------------------
Tabbed by: Billy Sumagui  of Grand Honors Band and Club Rhino	
Email:   batas_ko@yahoo.com
Tuning: standard
THE TABS ARE BROKEN IN PARTS FOR EASY PRINTING AND INSERTION ON YOUR BOOK
18
e|--------------|----------------|--------------|----------------------------|
B|------8-11-11-|----------------|------8-11-11-|-13-11----11-11-------------|
G|-7-10---12-12-|-------10-12-12-|-7-10---12-12-|-------12-12-12-------------|
D|--------12-12-|-10-12----12-12-|--------12-12-|----------12-12-------------|
A|--------------|----------13-13-|--------------|----------------------------|
E|--------------|----------------|--------------|----------------------------|

e|--------------|----------------|--------------|----------------------------|
B|------8-11-11-|----------------|------8-11-11-|-13-11----11-11-------------|
G|-7-10---12-12-|-------10-12-12-|-7-10---12-12-|-------12-12-12-------------|
D|--------12-12-|-10-12----12-12-|--------12-12-|----------12-12-------------|
A|--------------|----------13-13-|--------------|----------------------------|
E|--------------|----------------|--------------|----------------------------|

e|--------------|------------------------------------------------------------|
B|------8-11-11-|----------10/-11\-10/-13\-10--8-----------------------------|
G|-7-10---12-12-|-------10--9/-10\--9/-12\- 9--7-----------------------------|
D|--------12-12-|-10-12------------------------------------------------------|
A|--------------|------------------------------------------------------------|
E|--------------|------------------------------------------------------------|
28
e|--------------|------------------------------------------------------------|
B|------8-11-11-|-13-11----11-11---------------------------------------------|
G|-7-10---12-12-|-------12-12-12---------------------------------------------|
D|--------12-12-|----------12-12---------------------------------------------|
A|--------------|------------------------------------------------------------|
E|--------------|------------------------------------------------------------|

e|--------------|------------------------------------------------------------|
B|------8-11-11-|----------10/-11\-10/-13\-10--8-----------------------------|
G|-7-10---12-12-|-------10--9/-10\--9/-12\- 9--7-----------------------------|
D|--------12-12-|-10-12------------------------------------------------------|
A|--------------|------------------------------------------------------------|
E|--------------|------------------------------------------------------------|

e|--------------|---------8-8-8-8-9-10---------------------------------------|
B|------8-11-11-|----5-8--6-6-6-6-7--8---------------------------------------|
G|-7-10---12-12-|------------------------------------------------------------|
D|--------12-12-|------------------------------------------------------------|
A|--------------|------------------------------------------------------------|
E|--------------|------------------------------------------------------------|
===============================================================================

				1ST MOVEMENT PAGE 1
Related for Rio Funk Part 1 tab