Song name
# A B C D E F G H I J K L M N O P Q R S T U V W X Y Z

Lenny Kravitz - It Aint Over Till Its Over tab

e|---14b16-14-14-14-16-14-----9-12-9\---------------------------------|
b|-------------------------/12--------12b14--12-12-12-14-12-----------|
g|-----------------------------------------------------------11b13-13-|
d|--------------------------------------------------------------------|
a|--------------------------------------------------------------------|
E|--------------------------------------------------------------------|


e|--------------------------------------------------------10-10b12--|
b|----------12-10---------------------13p12-12p11-10p9-9p8----------|
g|13-13-r11------13-11--11-11-11-13-11------------------------------|
d|------------------------------------------------------------------|
a|------------------------------------------------------------------|
E|------------------------------------------------------------------|
Tap to rate this tab
# A B C D E F G H I J K L M N O P Q R S T U V W X Y Z