Song name
# A B C D E F G H I J K L M N O P Q R S T U V W X Y Z

Less Than Jake - Brown Eyed Girl tab

Help us improve GuitareTab! Take a short survey!
Very Easy Song!


A)Intro
|-7-8-10-8-7-12-13-15-13-12-7-8-10-8-7----------| 
|----------------------------------------7-8-10-| 
|--------------------------------------7--------|  
|-----------------------------------------------|  X2
|-----------------------------------------------| 
|-----------------------------------------------|

B)Main Rift
|-------------------------------------------------| 
|-------------------------------------------------| 
|-------------5-5-5-5-5-5-------------7-7-7-7-7-7-|
|-5-5-5-5-5-5-5-5-5-5-5-5-5-5-5-5-5-5-7-7-7-7-7-7-|  X3
|-5-5-5-5-5-5-3-3-3-3-3-3-5-5-5-5-5-5-5-5-5-5-5-5-| 
|-3-3-3-3-3-3-------------3-3-3-3-3-3-------------|
  G           C           G           D

B)Main Rift
|-------------------------------------------------| 
|-------------------------------------------------| 
|-5-5-5-5-5-5-7-7-7-7-7-7-------------8-8-8-8-8-8-|  
|-5-5-5-5-5-5-7-7-7-7-7-7-5-5-5-5-5-5-8-8-8-8-8-8-|
|-3-3-3-3-3-3-5-5-5-5-5-5-5-5-5-5-5-5-6-6-6-6-6-6-| 
|-------------------------3-3-3-3-3-3-------------|
  C           D           G           Em

|-------------------------------------| 
|-------------------------------------| 
|-5-5-5-5-5-5-7-7-7-7-7-7-------------|  
|-5-5-5-5-5-5-7-7-7-7-7-7-5-5-5-5-5-5-|
|-3-3-3-3-3-3-5-5-5-5-5-5-5-5-5-5-5-5-| 
|-------------------------3-3-3-3-3-3-|
  C           D           G           

C)Bridge
|-------------------------------------------------| 
|-------------------------------------------------| 
|-------------5-5-5-5-5-5-------------7-7-7-7-7-7-|
|-5-5-5-5-5-5-5-5-5-5-5-5-5-5-5-5-5-5-7-7-7-7-7-7-| X2
|-5-5-5-5-5-5-3-3-3-3-3-3-5-5-5-5-5-5-5-5-5-5-5-5-| 
|-3-3-3-3-3-3-------------3-3-3-3-3-3-------------|
  G           C           G           D
                                       
C)Bridge
|---|
|---|
|---|
|-5-|
|-5-|
|-3-|


-Bass Rift & Drums-

B)Main Rift
|-------------------------------------------------| 
|-------------------------------------------------| 
|-------------5-5-5-5-5-5-------------7-7-7-7-7-7-|
|-5-5-5-5-5-5-5-5-5-5-5-5-5-5-5-5-5-5-7-7-7-7-7-7-|  X3
|-5-5-5-5-5-5-3-3-3-3-3-3-5-5-5-5-5-5-5-5-5-5-5-5-| 
|-3-3-3-3-3-3-------------3-3-3-3-3-3-------------|
  G           C           G           D

B)Main Rift
|-------------------------------------------------| 
|-------------------------------------------------| 
|-5-5-5-5-5-5-7-7-7-7-7-7-------------8-8-8-8-8-8-|  
|-5-5-5-5-5-5-7-7-7-7-7-7-5-5-5-5-5-5-8-8-8-8-8-8-|
|-3-3-3-3-3-3-5-5-5-5-5-5-5-5-5-5-5-5-6-6-6-6-6-6-| 
|-------------------------3-3-3-3-3-3-------------|
  C           D           G           Em

|-------------------------------------| 
|-------------------------------------| 
|-5-5-5-5-5-5-7-7-7-7-7-7-------------|  
|-5-5-5-5-5-5-7-7-7-7-7-7-5-5-5-5-5-5-|
|-3-3-3-3-3-3-5-5-5-5-5-5-5-5-5-5-5-5-| 
|-------------------------3-3-3-3-3-3-|
  C           D           G           

C)Bridge
|-------------------------------------------------| 
|-------------------------------------------------| 
|-------------5-5-5-5-5-5-------------7-7-7-7-7-7-|
|-5-5-5-5-5-5-5-5-5-5-5-5-5-5-5-5-5-5-7-7-7-7-7-7-| XTill End
|-5-5-5-5-5-5-3-3-3-3-3-3-5-5-5-5-5-5-5-5-5-5-5-5-| 
|-3-3-3-3-3-3-------------3-3-3-3-3-3-------------|

This is all tabed out by me, myself, and I, Dday33. So nobody steal this tab!
Related for Brown Eyed Girl tab