Song name
# A B C D E F G H I J K L M N O P Q R S T U V W X Y Z

Letter 7 - Lifeline tab

-------------------------------------------------------------------------------
			     Lifeline  -  Letter 7
-------------------------------------------------------------------------------
Tabbed by: I Rock 4 God
Email: HobbobTok98@gmail.com
Tuning: Standard (E,A,D,G,B,e)
*Rhythm guitar only

INTRO
e|--5--4~--5--4~--5--4~--4~--5----------5--4~--5--4~--5--4~--4~--5-----------|
B|--2--2~--2--2~--2--2~--2~----2--------2--2~--2--2~--2--2~--2~----2---------|
G|--2--2~--2--2~--2--2~--2~------2------2--2~--2--2~--2--2~--2~------2-------|
D|---------------------------------2-----------------------------------2-----|
A|---------------------------------------------------------------------------|
E|---------------------------------------------------------------------------|

VERSE (Clean)
e|--5--4~--5--4~--5--4~--4~--5----------5--4~--5--4~--5--4~--4~--5-----------|
B|--2--2~--2--2~--2--2~--2~----2--------2--2~--2--2~--2--2~--2~----2---------|
G|--2--2~--2--2~--2--2~--2~------2------2--2~--2--2~--2--2~--2~------2-------|
D|---------------------------------2-----------------------------------2-----|
A|---------------------------------------------------------------------------|
E|---------------------------------------------------------------------------|

VERSE (Distorted)
e|--0~--5--4~--5--4~---------2~---------------------------------------------|
B|--0~--2--2~--2--2~---------2~*-*-*-*-*-*-*-*-*-*---*-*-*-*-*--------------|
G|--1~--2--2~--2--2~---------4~--------------------5------------------------|
D|--2~-----------------------4~4-4-4-4-4-4-4-4-4-4-5-5-5-5-5-5---5-5--5-5---|
A|--2~-----------------------2~2-2-2-2-2-2-2-2-2-2-3-3-3-3-3-3---3-3--3-3---|
E|--0~----------------------------------------------------------------------|
                                  ^^^^^^NOT EXACT COUNT^^^^^^

CHORUS x2
e|---------------------------------------------------------------------------|
B|--*-*-*-*-*-*-*-*-*-*-*-*-*-*-*-*-*-*-*-*-*-*-*-*-*-*-*-*-*-*-*-*-*-*-*-*--|
G|---------------------------------------------------------------------------|
D|--12------12------12----12----12------12------4-----4---4---7-----7---7----|
A|--9-9-9-9-9-9-9-9-9-9-9-9-9-9-9-9-9-9-9-9-9-9-2-2-2-2-2-2-2-5-5-5-5-5-5-5--|
E|---------------------------------------------------------------------------|

VERSE (Clean, Distorted)
CHORUS
SOLO (Play Chorus behind solo)
CHORUS x2

OUTRO
e|--5--4~--5--4~--5--4~------~P~------------------0~-------------------------|
B|--2--2~--2--2~--2--2~------~A~----------------2~---------------------------|
G|--2--2~--2--2~--2--2~------~U~--------------1~-----------------------------|
D|---------------------------~S~---------------------------------------------|
A|---------------------------~E~---------------------------------------------|
E|---------------------------------------------------------------------------|

************************************
| *   Palm Mute
| ~   Hold Note
| x   Mute note
| b   Bend
************************************

Enjoy!  Keep on Rockin' in Christ!

Here is the bands website.
www.myspace.com/letter7rocks
Tap to rate this tab
# A B C D E F G H I J K L M N O P Q R S T U V W X Y Z