Song name
# A B C D E F G H I J K L M N O P Q R S T U V W X Y Z

Lewis Watson - Ghost chords

Highlighted       Show chord diagrams
'Ghost' by Lewis Watson as played for Burberry Acoustic on November 5th, 2013.

Standard tuning, no capo. You can find out the strumming patterns by listening to 
the song. I am not sure about the lyrics, I just wrote them down while listening 
to the song. Sorry if there're mistakes!

Song intro             
                        C/G                      G     C     G
e|-----------------------0-----------------------0-----0-----0---------------|
B|-----------------------0-----------------------0-----1-----0---------------|
G|-----4-----2-----0-----0-----4-----2-----0-----0-----0-----0---------------|
D|-----------------------2-----------------------0-----2-----0---------------|
A|-----------------------3-----------------------2-----3-----2---------------|
E|-----------------------3-----------------------3-----0-----3---------------|


                        C/G
e|-----------------------0---------------------------------------------------|
B|-----------------------0---------------------------------------------------|
G|-----4-----2-----0-----0---------------------------------------------------|
D|-----------------------2---------------------------------------------------|
A|-----------------------3---------------------------------------------------|
E|-----------------------3---------------------------------------------------|


G         C/G            Em
  Watch my bones turn to dust

       G      C        Em
In the winter

G         C/G         Em
  All my riches  were lost

       G   C   Em   
Like a summer last

G           C/G         Em
  Thought I knew how to fly

        G     C      Em
But I'm falling

G           C/G        Em
  Dreamt it up you and I

         G      C      Em
'Til the morning


           C/G
But I am a ghost

                G
I float by your notice

                  C/G
By the one I love most

               G
The one I held closest

           C/G
But I am a ghost

              G
Just haunting myself


                        C/G                      G     C     G
e|-----------------------0-----------------------0-----0-----0---------------|
B|-----------------------0-----------------------0-----1-----0---------------|
G|-----4-----2-----0-----0-----4-----2-----0-----0-----0-----0---------------|
D|-----------------------2-----------------------0-----2-----0---------------|
A|-----------------------3-----------------------2-----3-----2---------------|
E|-----------------------3-----------------------3-----0-----3---------------|


                        C/G
e|-----------------------0---------------------------------------------------|
B|-----------------------0---------------------------------------------------|
G|-----4-----2-----0-----0---------------------------------------------------|
D|-----------------------2---------------------------------------------------|
A|-----------------------3---------------------------------------------------|
E|-----------------------3---------------------------------------------------|


G               C/G        Em
  I'll write it down to myself

     G     C     Em
In a letter


G       C/G             Em
  Maybe then that would help

       G    C   Em
Me feel better


                C/G
But just like a ghost

                     G
Will I float by your notice

                  C/G
By the one I love most

              G
The one I held closest

           C/G
But I am a ghost

              G
Just haunting myself

Tap to rate this tab
 
# A B C D E F G H I J K L M N O P Q R S T U V W X Y Z