Song name
# A B C D E F G H I J K L M N O P Q R S T U V W X Y Z

Lhasa De Sela - Rising tab

-------------------------------------------------------------------------------
			     Rising - Lhasa De Sela
-------------------------------------------------------------------------------
Artist:	Lhasa de Sela
Song:	Rising
Tabbed by: neuroxik

Tuning: Standard (EADGBe)
Harp transcribed for guitar, so this sounds pretty mellow

   Riff A
   Dm					 C
e|-----------10----------------10------|--------8------------8------|
B|--------10----10----------10---10----|------8---8--------8---8----|
G|-----10----------10----10---------10-|----9-------9----9-------9--|
D|--12----------------12---------------|-10-----------10------------| X2
A|-------------------------------------|----------------------------|
E|-------------------------------------|----------------------------|

		                 end Riff A
   Bm/5-
e|--------7------------5------------5------|
B|------6---6--------5---5--------5---5----|
G|----7-------7----5-------5----5-------5--| Repeat Riff A twice
D|--9------------7------------7------------|
A|-----------------------------------------|
E|-----------------------------------------|
    * see note #1


   Dm					 C
e|-----------10----------------10------|--------8------------8------|
B|--------10----10----------10---10----|------8---8--------8---8----|
G|-----10----------10----10---------10-|----9-------9----9-------9--|
D|--12----------------12---------------|-10-----------10------------| X3
A|-------------------------------------|----------------------------|
E|-------------------------------------|----------------------------|

e|-----------(7)--|----------------------------------------------------------|
B|--------(6)-----|----------------------------------------------------------|
G|-----(7)--------|----------------------------------------------------------|
D|--9-------------|----------------------------------------------------------|
A|----------------|----------------------------------------------------------|
E|----------------|----------------------------------------------------------|

Repeat these patterns pretty much throughout the whole song


Note:	I recognize this chord may be hard for some to maintain in arpeggio,
	but it could be forgiving to release the pinky from the 9 (B note)
	after the 6 (F note), therefore:

    ------------------7----------------------|
    --------------6-----6--------------------|
    ------------7---------7------------------|
    ----------9------------------------------|
    -----------------------------------------|
    -----------------------------------------|
	Let ring: ______  _____
Tap to rate this tab
# A B C D E F G H I J K L M N O P Q R S T U V W X Y Z