Song name
# A B C D E F G H I J K L M N O P Q R S T U V W X Y Z

Lhasa De Sela - Fools Gold tab

Lhasa de Sela - Fool's Gold

transcribed by: robertdanielmaher (at) gmail (dot) com

capo 6 (chords relative to capo)

Harp arranged for guitar

 C                         Am
|--------0---|--------0---|--------0---|--------0---|
|----1-----1-|----1-----1-|----1-----1-|----1-----1-|
|--0---------|--0---0-----|--2---------|--2---2-----|
|------2-----|------------|------2-----|------------|
|3-----------|3-------2---|0-----------|0-------2---|
|------------|------------|------------|------------|

 C                         G
|--------0---|--------0---|------------|------------|
|----1-----1-|----1-----1-|--------3---|--------3---|
|--0---------|--0---------|----4-----4-|----4-----4-|
|------2-----|------2-----|--5---------|--5---------|
|3-----------|3-----------|------5-----|------5-----|
|------------|------------|3-----------|3-----------|

 C                         Am
|--------0---|--------0---|--------0---|--------0---|
|----1-----1-|----1-----1-|----1-----1-|----1-----1-|
|--0---------|--0---0-----|--2---------|--2---2-----|
|------2-----|------------|------2-----|------------|
|3-----------|3-------2---|0-----------|0-------2---|
|------------|------------|------------|------------|

 C            G                         C
|--------0---|------------|------------|--------0---|
|----1-----1-|--------3---|--------3---|----1-----1-|
|--0---------|----4-----4-|----4-----4-|--0---------|
|------2-----|--5---------|--5---------|------2-----|
|3-----------|------5-----|------5-----|3-----------|
|------------|3-----------|3-----------|------------|


     C                  Am
You told me that you'd stay with me
     C             G
And shelter me forever
      C            Am
That was a hard promise to keep
         C         G               C
I can't blame you for the bad weather

       C                 Am
After all that has been said and done
         C                    G
I won't ask you where you're going
       C                      Am
Don't keep in touch, I don't miss you much
        C         G                C
Except sometimes early in the morning

     C               Am
Now use your silver tongue once more
         C                          G
There's one thing that Id like to know
         C                Am
Did you ever believe the lies that you told?
         C               G                 C
Did you earn the fool's gold that you gave me?

(instrumetal)

      C               Am
I forgive you wanting to be free
      C                G
I realize you long to wander
       C                    Am
And I sympathize with your roving eyes
        C        G                C
I just can't forgive your bad manners

     C               Am
Now use your silver tongue once more
         C                          G
There's one thing that Id like to know
         C                Am
Did you ever believe the lies that you told?
         C               G                 C
Did you earn the fool's gold that you gave me?
         C                Am
Did you ever believe the lies that you told?
         C               G                 C
Did you earn the fool's gold that you gave me?
Tap to rate this tab
# A B C D E F G H I J K L M N O P Q R S T U V W X Y Z