Guitaretab - guitar tabs
Song name
# A B C D E F G H I J K L M N O P Q R S T U V W X Y Z

Libertines - Vertigo tab

-----------------------------------------------------------------------------
			     Vertigo  The Libertines
-----------------------------------------------------------------------------
Tabbed by: Louis p

Tuning: Normal

intro
[ Tab from: http://www.guitaretab.com/l/libertines/126499.html ]
e|----------------------------------------------------------------------|
B|----------------------------------------------------------------------|
G|---------1----------------1------------------3-----------------6------|
D|---------1----------------1------------------3-----------------6------|
A|-----1h3---3-1--------1h3---3-1----------3h5---5-3---------6h8---8-6--|
E|-1-4-----------4---1-4-----------4---3-6-----------6---6-9-----------9|

e|-----------------|
B|-----------------|
G|---------1-------|
D|---------1-------|
A|-----1h3---3-1---|
E|-1-4-----------4-|

Verse

Repeat above but with F G A# playing over it

Bridge

     D#                           D#m                                 
Just walking under ladders as the people round you hear your crys and 
A# 
screams
D#                      D#m                A#      A# A  G   F        
as the people round you hear your crys and screams 


| /  slide up
| \  slide down
| h  hammer-on
| p  pull-off
| v  vibrato
| +  harmonic
| x  Mute note
===========================================================
Related for Vertigo tab