Guitaretab - guitar tabs
Song name
# A B C D E F G H I J K L M N O P Q R S T U V W X Y Z

Libertines - Time For Heroes tab

Hey guys this is my first tab ever!. So I would Appreciate if you rate it.

Song: Time For Heroes
Artist: The Libertines
Solo Played By: Carl Barat
Album: Up The Bracket
Tabbed By: Dani

e|--------------------------------------|
B|---7-5-7---7-5-7---7-5-7--8-8-8-8-7-5-|
G|-7-------6-------4--------------------|
D|--------------------------------------|
A|--------------------------------------|
E|--------------------------------------|

   D       F#m     G           A
e|---------------------------------------|
B|---7-5-7---7-5-7--------5-7--8-8-8-8-5-|
G|-7-------6-------44--77----------------|
D|---------------------------------------|
A|---------------------------------------|
E|---------------------------------------|
[ Tab from: http://www.guitaretab.com/l/libertines/40745.html ]
   D             F#m         Bm              G 
e|---------------2-0---------7--5--2--0------1-1-1-1-0-|
B|-------3---3-------3---3---------------3-------------|
G|---2-4---4---4-------4---4---------------4-----------|
D|-4---------------------------------------------------|
A|-----------------------------------------------------|
E|-----------------------------------------------------|

   G                         F#m                 G               A
e|---------------------------------------------------------------------------------------|
B|-3---3---3---3---3---3---3---------------------77777777-88888888-7-8-7-8-10-8-7-8-7-10-|
G|---4---4---4---4---4---4---------------------------------------------------------------|
D|---------------------------4-3-2-0---0---0---------------------------------------------|
A|-----------------------------------2---2---2-------------------------------------------|
E|---------------------------------------------------------------------------------------|
                                                 **
Related for Time For Heroes tab
Time For Heroes chords by Libertines