Song name
# A B C D E F G H I J K L M N O P Q R S T U V W X Y Z

Lifehouse - You Belong To Me tab

Artist: Lifehouse
Title: You belong To Me 
Credited to three writers (1952): Pee Wee King, Redd Stewart, and Chilton Price
Album: Shrek Soundtrack 
Tabbed by: Alex Raymond


You Belong To Me - Lifehouse


Tuning:

Standard (EADGBe) with capo 6


Chords:

C:  (X32010)   
Em: (022000)   
F:  (133211)  
Fm: (133111) 
Am: (X02210) 
G:  (320033)
Dm: (XX0231)  


Intro (0:00 - 0:23):

    C            Em            F             C             F       Fm
e|-------------------------------------------------0-----------------------|
B|--1-1-1-1-1-1---------0--0------1-1-1-1-1--------1------------1---1-1-1--|
G|--0-0-0-0-0-2---------0--0------2-0-2-2-0----0------0---0-----2---1-1-1--|
D|--2-0-2-0-2-0-0h2---2------2-3--3-3-3-3-0--2---2------2-----3---3-3-3-3--|
A|--3-3-3-3-3-3-0h2------------3--3-3-3------3--------------3--------------|
E|------------------0------------------------------------------------------|

    C   G    Am             Dm           G             C
e|------------------------------0----------------------------0--------|
B|----1---1-------1--1---1------3-3-3-3-----3---3-0-0--------1-----1--|
G|----0---0-0h2---2--2---2----2-2-2-0-0-----0-0-0-0-0-----0----0-0-0--|
D|----2---0-0h2-2------2----0-------0-0---0---0-------2---2------2----|
A|--3---2-------0-----------------------2-------------3---------------|
E|--------------------------------------3-----------------------------|


Verse 1 (0:23 - 0:44):

C                   Em            F
See the pyramids along the Nile
                         C              F
Watch the sunrise from a tropic isle
       Fm              C    G   Am    Dm
Just remember darling all the while
       G      C 
You belong to me


Verse 2 (0:44 - 1:06):

C                       Em            F
See the market place in old Algiers
                         C              F
Send me photographs and souvenirs
       Fm          C   G      Am     Dm
Just remember when a dream appears
       G      C
You belong to me


Bridge (1:06 - 1:21):

 C                           F
And I'd be so alone without you
 Dm                       G
Maybe you'd be lonesome, too


Verse 3 (1:21 - 1:42):

 C                   Em            F
Fly the ocean in a silver plane
                          C              F
See the jungle when it's wet with rain
        Fm           C     G    Am     Dm
Just remember 'til you're home again
       G      C
You belong to me


Interlude (1:42 - 2:03):

    C            Em            F             C             F       Fm
e|-------------------------------------------------0-----------------------|
B|--1-1-1-1-1-1---------0--0------1-1-1-1-1--------1------------1---1-1-1--|
G|--0-0-0-0-0-2---------0--0------2-0-2-2-0----0------0---0-----2---1-1-1--|
D|--2-0-2-0-2-0-0h2---2------2-3--3-3-3-3-0--2---2------2-----3---3-3-3-3--|
A|--3-3-3-3-3-3-0h2------------3--3-3-3------3--------------3--------------|
E|------------------0------------------------------------------------------|

    C   G    Am             Dm           G             C
e|------------------------------0----------------------------0--------|
B|----1---1-------1--1---1------3-3-3-3-----3---3-0-0--------1-----1--|
G|----0---0-0h2---2--2---2----2-2-2-0-0-----0-0-0-0-0-----0----0-0-0--|
D|----2---0-0h2-2------2----0-------0-0---0---0-------2---2------2----|
A|--3---2-------0-----------------------2-------------3---------------|
E|--------------------------------------3-----------------------------|


Bridge (2:03 - 2:17):

 C                           F
And I'd be so alone without you
 Dm                       G
Maybe you'd be lonesome, too


Verse 3 (2:17 - 2:41):

 C                   Em            F
Fly the ocean in a silver plane
                          C              F
See the jungle when it's wet with rain
        Fm           C     G    Am     Dm
Just remember 'til you're home again
       G      C...
You belong to me
Tap to rate this tab
# A B C D E F G H I J K L M N O P Q R S T U V W X Y Z