Lifehouse - Hanging By A Moment tab

-------------------------------------------------------------------------------
			     Hanging by a Moment - Lifehouse
-------------------------------------------------------------------------------
Tabbed by: stratotastic

Tuning: Half step down, then drop D


Note: The numbers above the last measure in each line are the measure counts.
The * above the two chords in the first chorus for Guitar 2 represent a
staccato sound for those chords. This is one of my first tabs, so please
comment and tell me what is/isnít good. Thanks.


Guitar 1:						     
eb|---|----------------|-----------------|----------------|----------------|
Bb|---|----------------|-----------------|----------------|----------------|
Gb|---|----------------|-----------------|----------------|----------------|
Db|---|--02-0----0-540-|--02-0----0-540--|--02-0----0-540-|--02-0----0-540-|
Ab|---|-0-----0-0-0----|-0-----0-0-0---0-|-0-----0-0-0---0|-0-----0-0-0---0|
Db|-7\|0-----0-0-----7\|0-----0-0--------|0-----0-0-------|0-----0-0-------|

Guitar 1:					     
eb|----------------|------------|-----------------|----------------|
Bb|----------------|------------|-----------------|----------------|
Gb|----------------|------------|-----------------|----------------|
Db|--02 0----0-540-|--02/4------|-----------------|----------------|
Ab|-0-----0-0-0---0|-0-----5-5+-|-----------------|----------------|
Db|0-----0-0-------|0-----------|-----------------|----------------|

Guitar 2:
eb|----------------|------------|----------------|----------------|
Bb|----------------|------------|-----7----------|-----7------87--|
Gb|----------------|------------|7--9---7---9-7--|7--9---7------97|
Db|----------------|------------|----------------|----------------|
Ab|----------------|------------|----------------|----------------|
Db|----------------|------------|----------------|----------------|

Guitar 1:						
eb|----------------|----------------|----------------|----------------|
Bb|----------------|----------------|----------------|----------------|
Gb|----------------|----------------|----------------|----------------|
Db|----------------|----------02-0--|--0-540---02-0--|--0-540---02-0--|
Ab|----------------|---------0-----0|-0-0-----0-----0|-0-0-----0-----0|
Db|----------------|--------0-----0-|0-------0-----0-|0-------0-----0-|

Guitar 2:
eb|----------------|----------------|----------------|----------------|
Bb|-----7----------|-----7----------|----------------|----------------|
Gb|7--9---7---9-7--|7--9---7--------|(7)-------------|----------------|
Db|----------------|----------------|----------------|----------------|
Ab|----------------|----------------|----------------|----------------|
Db|----------------|----------------|----------------|----------------|

Guitar 1:						
eb|----------------|----------------|----------------|----------------|
Bb|----------------|----------------|----------------|----------------|
Gb|----------------|----------------|----------------|---------------7|
Db|--0-540---02-0--|--0-540---02-0--|--0-540---02-0--|--0-540-9-9-97-7|
Ab|-0-0-----0-----0|-0-0-----0-----0|-0-0-----0-----0|-0-0----9-9-97-5|
Db|0-------0-----0-|0-------0-----0-|0-------0-----0-|0-------9-9-97--|

Guitar 2:						  
eb|----------------|----------------|----------------|----------------|
Bb|----------------|----------------|----------------|----*-*---------|
Gb|----------------|----------------|----------------|----7-7--------7|
Db|----------------|----------------|----------------|----7-7-9-9-97-7|
Ab|----------------|----------------|----------------|----5-5-9-9-97-5|
Db|----------------|----------------|----------------|--------9-9-97--|

Guitars 1 and 2:					
eb|----------------|----------------|----------------|----------------|
Bb|----------------|----------------|----------------|----------------|
Gb|-77------------7|-77------------7|-77------------7|-77------------7|
Db|-77-54--9-99-7-7|-77-54--9-99-7-7|-77-----9-99-7-7|-77-54--9-99-7-7|
Ab|-55---759-99-7-5|-55---759-99-7-5|-55-97779-99-7-5|-55---759-99-7-5|
Db|--------9-99-7--|--------9-99-7--|--------9-99-7--|--------9-99-7--|

Guitars 1 and 2:					
eb|----------------|----------------|----------------|----------------|
Bb|----------------|----------------|----------------|----------------|
Gb|-77------------7|-77------------7|-77------------7|-77-------------|
Db|-77-54--9-99-7-7|-77-54--9-99-7-7|-77-----9-99-7-7|-77-------5-----|
Ab|-55---759-99-7-5|-55---759-99-7-5|-55-97779-99-7-5|-55-------5---55|
Db|--------9-99-7--|--------9-99-7--|--------9-99-7--|--------55--45--|

Guitar 1:						   
eb|-------------------|----------------|----------------|-------------7-----|
Bb|-------------------|----------------|----------------|-----------------10|
Gb|-------------------|----------------|----------------|--------9b11r9-----|
Db|--5-------77--4b5r4|--77------5-----|--5-------------|-------------------|
Ab|--5---5555--55-----|55--55----5---55|--5---55--------|-------------------|
Db|55--45-------------|------0055--45--|55--45----------|-------------------|

Guitar 2:
eb|-------------------|----------------|----------------|-------------------|
Bb|-------------------|----------------|----------------|-------------------|
Gb|-------------------|----------------|--------4-4-4-44|4444---------------|
Db|--5-------77--4b5r4|--77------5-----|--5-----4-4-4-44|4444-------5-5-5555|
Ab|--5---5555--55-----|55--55----5---55|--5---552-2-2-22|22224b5r4205-5-5555|
Db|55--45-------------|------0055--45--|55--45----------|-----------5-5-5555|

Guitar 1:						
eb|----------------|----------------|----------------|----------------|
Bb|-\8-7---7-------|--------7-------|--------7-------|--------7-----8-|
Gb|------9----9----|------7----9----|------7----9----|------7----9----|
Db|--------------9-|-\7-9---------9-|-7--9---------9-|-77-9-----------|
Ab|----------------|----------------|----------------|----------------|
Db|----------------|----------------|----------------|----------------|

Guitar 2:
eb|----------------|-------------------|----------------|-------------------|
Bb|----------------|-------------------|----------------|-------------------|
Gb|----------------|-------------------|----------------|-------------------|
Db|7-7-77772-2-2222|-222-------5-5-5555|7-7-77772-2-2222|2222-------5-5-5555|
Ab|7-7-77772-2-2222|-2224b5r4205-5-5555|7-7-77772-2-2222|22224b5r4205-5-5555|
Db|7-7-77772-2-2222|-222-------5-5-5555|7-7-77772-2-2222|2222-------5-5-5555|

Guitar 1:						
eb|----------------|----------------|----------------|----------------|
Bb|-7----7---------|----------------|----------------|----------------|
Gb|----9---9-------|----------------|----------------|----------------|
Db|--------9-------|----------02-0--|--0-540---02-0--|--0-540---02-0--|
Ab|----------------|---------0-----0|-0-0-----0-----0|-0-0-----0-----0|
Db|----------------|--------0-----0-|0-------0-----0-|0-------0-----0-|

Guitar 2:
eb|----------------|----------------|----------------|----------------|
Bb|----------------|-------------7--|-------------7--|----87----------|
Gb|----------------|--------7--9---7|---9-7--7--9---7|------9-7-------|
Db|7-7-77772-------|----------------|----------------|----------------|
Ab|7-7-77772-------|----------------|----------------|----------------|
Db|7-7-77772-------|----------------|----------------|----------------|

Guitar 1:					
eb|----------------|----------------|----------------|----------------|
Bb|----------------|----------------|----------------|----------------|
Gb|----------------|----------------|----------------|----------------|
Db|--0-540---02-0--|--0-540---02-0--|--0-540---02-0--|--0-540---------|
Ab|-0-0-----0-----0|-0-0-----0-----0|-0-0-----0-----0|-0-0----<5>-----|
Db|0-------0-----0-|0-------0-----0-|0-------0-----0-|0---------------|

Guitar 2:
eb|----------------|----------------|----------------|----------------|
Bb|----------------|----------------|----------------|----------------|
Gb|----------------|----------------|----------------|----------------|
Db|----------------|----------------|----------------|----------------|
Ab|----------------|----------------|----------------|----------------|
Db|----------------|----------------|----------------|----------------|

Guitars 1 and 2:					
eb|----------------|----------------|----------------|----------------|
Bb|----------------|----------------|----------------|----------------|
Gb|---------------7|-77------------7|-77------------7|-77------------7|
Db|--------9-9-97-7|-77-54--9-99-7-7|-77-54--9-99-7-7|-77-----9-99-7-7|
Ab|--------9-9-97-5|-55---759-99-7-5|-55---759-99-7-5|-55-97779-99-7-5|
Db|--------9-9-97--|--------9-99-7--|--------9-99-7--|--------9-99-7--|

Guitars 1 and 2:					
eb|----------------|----------------|----------------|----------------|
Bb|----------------|----------------|----------------|----------------|
Gb|-77------------7|-77------------7|-77------------7|-77------------7|
Db|-77-54--9-99-7-7|-77-54--9-99-7-7|-77-54--9-99-7-7|-77-----9-99-7-7|
Ab|-55---759-99-7-5|-55---759-99-7-5|-55---759-99-7-5|-55-97779-99-7-5|
Db|--------9-99-7--|--------9-99-7--|--------9-99-7--|--------9-99-7--|

Guitars 1 and 2:					
eb|----------------|----------------|----------------|----------------|
Bb|----------------|----------------|----------------|----------------|
Gb|-77------------7|-77------------7|-77------------7|-77-------------|
Db|-77-54--9-99-7-7|-77-54--9-99-7-7|-77-54--9-99-7-7|-77-----9-99-7-0|
Ab|-55---759-99-7-5|-55---759-99-7-5|-55---759-99-7-5|-55-97779-99-7-0|
Db|--------9-99-7--|--------9-99-7--|--------9-99-7--|--------9-99-7-0|

************************************

| /   slide up
| \   slide down
| h   hammer-on
| p   pull-off
| ~   vibrato
| <>  natural harmonic
| x   Mute note
| b   Bend
| pb  Pre-bend
| br  Bend release
| pbr Pre-bend release
| brb Bend release bend

************************************
Tap to rate this tab
 
# A B C D E F G H I J K L M N O P Q R S T U V W X Y Z