Song name
# A B C D E F G H I J K L M N O P Q R S T U V W X Y Z

Lifehouse - Storm tab

Highlighted       Show chord diagrams
Artist: Lifehouse
Song: Storm
Album: Who We Are (Geffen) (2007)
Written by: Jason Wade
Tabbed by: José D. Montenegro M.
Tuning: Standard (EADGBe)

Chords:
    Em7 D/F# G  C  D5
e|--3---3----3--3--0--|
B|--3---3----3--3--3--|
G|--0---2----0--0--2--|
D|--2---0----0--2--0--|
A|--2---0----2--3-----|
E|--0---2----3--------|

Intro:
Em7 - C - G, Em7 - D/F# - G [x2]

Verse 1:
Em7           C              G         Em7                D/F#             G
How long have I been in this storm? So overwhelmed by the oceans shapeless form

Em7        C                   G   Em7                  D/F#         G
Water's getting harder to treat, - with these waves crashing over my head

Pre-chorus:
   G       D/F#     Em7  C                   G
If I could just see you, everything would be alright
G    D/F#     Em7      D/F#                     G
If I had seen you, the storminess would turn to light

Chorus 1:
    Em7 C        G          Em7      D/F#          G
And I…   walk on water, and you will catch me if I fall
Em7   C          G      D/F#    Em7  C         D5             G 
And I… would get lost into your eyes, and everything would be alright

G - D/F# - Em7          D5             Em7
              …and everything would be alright

Post-chorus:
    Em7     C        G                        Em7     D/F#     G
e|-----------------------------------------|-------------------------3-----------|
B|--------3-------3---------3--------------|--------3-------3-----------------3--|
G|------0-------0-------0-2---2-0h2-2-0----|------0-------2--------0--------0----|
D|----2-------2-------0-----------------0--|----2-------0--------0--------0------|
A|----------3------------------------------|-------------------------------------|
E|--0---------------3----------------------|--0-------2--------3--------3--------|

Verse 2:
  Em7         C                     G         Em7               D/F#                G
I know you did bring me out here to drown, so why am I ten feet under and upside down?
Em7       C                    G               Em7            D/F#                  G
Barely surviving has become my purpose, 'cause I'm so used to living underneath the surface

[Repeat pre-chorus and chorus]

End Chorus:
    Em7 C        G          Em7      D/F#          G
And I…   walk on water, and you will catch me if I fall
Em7   C          G      D/F#    Em7  C         D5             G 
And I… would get lost into your eyes, and everything would be alright
G - D/F# - Em7              D        Em7
               …I know everything is alright
C - G - D              Em7    D/F# - G
         …everything's alright

That's it…

You can strum the chords, but if you want to play it like Jason, play these
arpeggios for each chord:

    Em7            C                    G                D/F#             D5
e|-----------------|-----------------|----------------|-----------------|--------0---------|
B|--------3--------|--------3--------|-------3--------|--------3--------|------3----3---3--|
G|------0---0---0--|------0---0---0--|-----0---0---0--|------2---2---2--|----2--------2----|
D|----2-------2----|----2-------2----|---0-------0----|----0-------0----|--0---------------|
A|-----------------|--3--------------|----------------|-----------------|------------------|
E|--0--------------|-----------------|-3--------------|--2--------------|------------------|

Note:
In the pre-chorus and chorus there are some G - D/F#, just play the chord
a half time:
e|-------------------|
B|--------3-------3--|
G|------0-------2----|
D|----0-------0------|
A|-------------------|
E|--3-------2--------|

Beautiful song, nice to sing while you're drowning in tears… just kidding,
believe me, there is a hope… [d:] Any comment or question mail
me: 'j053montenegro@yahoo.es' (it's a zero in j053)
or 'free_at_last777@hotmail.com'.

GOD bl3s5 U.
j:053[d:]montNgro, your Latino brother.

Tap to rate this tab
# A B C D E F G H I J K L M N O P Q R S T U V W X Y Z