Song name
# A B C D E F G H I J K L M N O P Q R S T U V W X Y Z

Lifehouse - Better Part Of Me tab

Help us improve GuitareTab! Take a short survey!
Artist:Lifehouse
Song:Better Part of me
Tabbed by:LilyBean
Email:Chelsea_marie13@hotmail.com

Tuning:Standard
  
I think this is a really pretty song and i think i got most of what i have here right.
Although i only got part of the chorus and the end of the song i couldn't really hear
it that well..so im sorry! But if anyone knows it you can email me, or just if you have
any comments or questions! this is fairly easy to play just listen to get how it goes.
This is my first tab so i hope this is right.
 
  Verse 1: repeat 5 times   
e|--2----------2----------2-----------2----------2------------------------|
B|-----3----3-----3----3-----3----3------3----3-----3-----3---------------|
G|--------2----------2----------2-----------2----------2------------------|
D|--0----------0----------0-----------0----------0------------------------|
A|------------------------------------------------------------------------|
E|------------------------------------------------------------------------|

  Verse 2: repeat 4 times                    
e|----------------------|
B|--3-------------------|
G|-----2---2------------|
D|--0----0--------------|
A|----------------------|
E|----------------------|

  Verse 1:repeat 3 times
e|---2---------2---------2---------2--------2--------------------|
B|------3---3-----3---3-----3---3----3---3----3----3-------------|
G|--------2---------2---------2--------2---------2---------------|
D|---0---------0---------0---------0--------0--------------------|
A|---------------------------------------------------------------|
E|---------------------------------------------------------------|

  Verse 2:repeat 4 times
e|----------------------|
B|---3------------------|
G|------2---2-----------|
D|---0----0-------------|
A|----------------------|
E|----------------------|
   
  Than repeat verse 1 one time
   
   Chorus:
e|------------------------------------------------------------|
B|--3-------3--3---------3--3-------3-3--------3--------3-----|
G|----0---0-------0---0-------0---0-----0---0-----0---0-------|
D|------2-----------2-----------2---------2---------2---------|
A|--3----------3------------3---------3--------3--------------|
E|------------------------------------------------------------|
       ^This is only the first part of the chorus
Related for Better Part Of Me tab