Song name
# A B C D E F G H I J K L M N O P Q R S T U V W X Y Z

Lil Jon And The East Side Boys - Lets Go tab

Help us improve GuitareTab! Take a short survey!
this might not be exact but its close enough.. yea.. haha 


           play this 7 times
         e--------9---10---9---7-7------------------------------------|
         B----7-7---7----7---7-----10---10-9-7-6----------------------|
         G------------------------------------------------------------|
         D------------------------------------------------------------|
         A------------------------------------------------------------|
         E------------------------------------------------------------|

           then play this the 8th time [the only one difference tho]
         e--------9---10---9---7-7------------------------------------|
         B----7-7---7----7---7-----10---10-9-7-6-7--------------------|
         G------------------------------------------------------------|
         D------------------------------------------------------------|
         A------------------------------------------------------------|
         E------------------------------------------------------------|
Related for Lets Go tab