Song name
# A B C D E F G H I J K L M N O P Q R S T U V W X Y Z

Lil Jon And The East Side Boys - Lovers And Friends tab

Lil Jon And The East Side Boys - Lovers and Friends

A slight fingerpicking acoustic arrangement for this song. This pattern continues through
out the whole song.  Enjoy!

Tabbed by: Epicus

Questions or comments can be sent to my email: baronepicusfuror@yahoo.com




Tuning: 1/2 step down, dropped C#



D#||--------4-----------------|-----------------------2--|
A#||--2h-4-----2h-4--2--------|------------2----2--------|
F#||--------------------------|--3---3--4----------4-----|
C#||--------------------------|--------------------------|
G#||--------------------------|--------------------------|
C#||--2--------------4--------|--4--------------1--------|


  
----------------------|-------4------------------|-----------------------2--|
--2h-4------------2-4-|--2h-4------2h-4-2--------|------------2----2--------|
--------------4-4-----|--------------------------|--3---3--4----------4-----|
----------------------|--------------------------|--------------------------|
----------------------|--------------------------|--------------------------|
--2-------------------|--2--------------4--------|--4--------------1--------|


 
----------------------||
--2h-4------------2-4-||
--------------4-4-----||
----------------------||
----------------------||
--2-------------------||

Legend:
h = hammer-on
Tap to rate this tab
# A B C D E F G H I J K L M N O P Q R S T U V W X Y Z