Song name
# A B C D E F G H I J K L M N O P Q R S T U V W X Y Z

Limp Bizkit - Leech tab

Song: Leech
Band: Limp Bizkit
Album: Three Dollar Bill Y'all$
Tabbed by: Johan Braathen 

Main Riff:
----------------------------------------------------
----------------------------------------------------
----------------------------------------------------
----------------------------------------------------
----------------------------------------------------
---14-13-0-0----14-13-0-14---13-0-0----14-13-0------

Verse:
---------------------------------
---------------------------------
---------------------------------
--4-3------4-3---4--3-----4-3----
--4-3------4-3---4--3-----4-3----
--2-1-0-0--2-1-0-2--1-0-0-2-1-0--

Chorus:
------------------------------------------------
------------------------------------------------
------------------------------------------------
-1-------1-------1--------1/2-3\2---------------
-1-------1-------1--------1/2-3\2---------------
-0--x-x--0--x-x--0--x-x-------------------------

Live Chorus Riff:
-------------------------------
-------------------------------
-------------------------------
--13-13-13-------13/14--15\14--
--13-13-13-------13/14--15\14--
---0--0--0---------------------
Tap to rate this tab
 
# A B C D E F G H I J K L M N O P Q R S T U V W X Y Z