Song name
# A B C D E F G H I J K L M N O P Q R S T U V W X Y Z

Limp Bizkit - Drown tab

Limpbizkit
Drown
Results May Vary
Track 16
Guitarist: Mike Smith

verse
w/light distortion
------------0-----------------0-------------0-----------2p0-----0---|
--------------0---0----2p0--------------------0---0-----------------|
--------3-------3----3-----3------------3-------3----3--------------|
------4-------------------------------4----------------------4------|
----4-------------------------------4-------------------------------|
--2-------------------------------2---------------------------------|

                                                                          fill
------------0-----------------0-----0------------0----0-------------|  |---3-------0-----0--|
--------------0---0----2p0------------0--------0----0---------------|  |---5-------5-----2--|
--------3-------3----3-----3-----4---------4------------------------|  |---4-------6-----3--|
------4----------------------------------5--------------------------|  |---x-------7-----4--|
----4---------------------------------------------------------------|  |---5-------7-----4--|
--2-----------------------------------------------------------------|  |---3-------5-----2--|


chorus                    ending
----0-----------3-----|   |------------------------------------------------|
----1-----------3-----|   |------------------------------------------------|
----0-----------0-----|   |----9------4-------2-------6---------4----------|
----2-----------0-----|   |----9------4-------2-------6---------4----------|
----3-----------------|   |----7------2-------0-------4---------2----------|
----------------3-----|   |----0-------------------------------------------|

Tap to rate this tab
# A B C D E F G H I J K L M N O P Q R S T U V W X Y Z