Song name
# A B C D E F G H I J K L M N O P Q R S T U V W X Y Z

Limp Bizkit - Breakstuff Intro tab

Intro:

        e:--------------------------------------------------
        h:--------------------------------------------------
        g:--------------------------------------------------
        d:--2----3------------------------------------------
        a:--2----1------------------------------------------
        E:--------------------------------------------------

          Play this till the chorus

       Chorus I think it's something like that!!

         e:-------------------------------------------------
         h:-------------------------------------------------
         g:-------------------------------------------------
         d:--2---2--2--2---2---2----------------------------
         a:--2---2--2--2---2---2----------------------------
         E:------------------------------------------------- 

Okay that's it and I think it sounds quite well!!
Tap to rate this tab
 
# A B C D E F G H I J K L M N O P Q R S T U V W X Y Z