Guitaretab - guitar tabs
Song name
# A B C D E F G H I J K L M N O P Q R S T U V W X Y Z

Limp Bizkit - My Generation tab

Limp Bizkit - My Generation - Guitar Tab

Transcribed by Daniel Newton of Gospot, England
This song is meant for a 7 string guitar but i have 
translated it to 6 string.
For the harmonics try to get the sound as clean as possible
by plucking the string between your finger and your pick.
The interlude's are relatively fast so a lot of practice 
will pay off

Intro/Chorus (8 times)w/dist.:
C#--------------------------------
G#--------------------------------
E---------------------------------
B---------------------------------
F#--2-2-----2-2---------5---5---5-
C#--0-0-*3*-0-0-*3*--3p0-3p0-3p0-

Verse (repeat throughout verse)w/dist.:
C#------------------------------
G#------------------------------
E-------------------------------
B-------------------------------
F#--22---------22---------22----
C#--00-*4*-*4*-00-*4*-*4*-00-*4*
        I---I      I----I     I	  <-Harmonics

Pre-Chorus (twice)w/dist.:
C#-------------------
G#-------------------
E--------------------
B--------------------
F#--5--5--5----5--5-5
C#--3--3--3----3--3-3

Chorus

Verse

Pre-Chorus

Chorus

At the end of the second chorus, play this (w/dist.):
C#--------------
G#--------------
E---------------
B---------------
F#--5--4--2--2-2
C#--3--2--0--0-0


Interlude (clean):
C#-----------------------------------------
G#-----------------------------------------
E------------------------------------------	
B------------------------------------------
F#-------5h7-----------------5h7-----------
C#--0-00----3h5p3-1h3p1--0-00------3h5p3-1-

Heavy Interlude (w/dist.):
C#-------------------------------------------------------
G#-------------------------------------------------------
E--------------------------------------------------------
B--------------------------------------------------------
F#--2-22-5h7-5--5h7---5-3h5---3--2-22-5h7-5-5h7---5-3----
C#--0-00-----------3h5-3---1h3-1-0-00----------3h5----3-1

Pre-Chorus

Chorus

Ending (w/dist.):
C#---------------------
G#---------------------
E----------------------
B----------------------
F#--55--5-5---55--5-5-2
C#--33--3-3---33--3-3-0
[ Tab from: http://www.guitaretab.com/l/limp-bizkit/21509.html ]
Related for My Generation tab