Song name
# A B C D E F G H I J K L M N O P Q R S T U V W X Y Z

Limp Bizkit - Behind Blue Eyes tab

Artist:Limp Bizkit
Song:Behind blue eyes
Album:Result may vary
Tabber:Pawanman

This song is very very beautiful song in contrast to there old music.

intro
E|------0---------0--------0--------0--------0--------0--------0--------0-------|
B|-----0-0-------3-3-----3--3-3---3--3-3---3--3-3---3--3-3---0--0-0---0--0-0----|
G|---------0--------0---2-2--2---2-2--2-----0--0-----0--0-----2--2-----2--2-----|
D|----2-----2---0----0-0--------0---------2--------2--------2--------2----------|
A|---2---------2-------------------------3--------3--------0--------0-----------|
E|--0---------3-----------------------------------------------------------------|

verse 1
E|------0-------0-------0--------0--------0--------0----000-0-0-|
B|-----0-0-----3-3----3--3-3---3--3-3---3--3-3---3--3-3-000-0-0-|
G|--------0-------0--2-2--2---2-2--2-----0--0-----0--0--222-2-2-|
D|----2-------0-----0--------0---------2--------2-------222-2-2-|
A|---2-------2------------------------3--------3--------000-0-0-|
E|--0-------3-------------------------------------------000-0-0-|

All other verses are like the intro

Chorus
  c    D    G    
|-0----0----3-  
|-1----3----0-  
|-0----2----0-  
|-2----0----0-  
|-3----0----2-  
|-0----0----3-    

  c    D    E    
|-0----0----0-    
|-1----3----0-    
|-0----2----1-    
|-2----0----2-    
|-3----0----2-    
|-0----0----0-   

  Bm    c
|-2-----O-
|-3-----1-
|-4-----0-
|-4-----2-
|-2-----3-
|-2-----0-

  D     A
|-0-----0-    
|-3-----0-
|-2-----2-
|-0-----2-
|-0-----0-
|-0-----0-

LYRICS
no one knows what it's like 
to be the bad man
To be the sad man 
behind blue eyes
and no one knows 
what it's like to be hated
to be faded 
to telling only lies
 
CHORUS
       C    D                G
but my dreams they aren't as empty
      C          D        E
as my conscience seems to be
       Bm          C
i have hours, only lonely
           D                      
my love is vengeance 
             A
that's never free
 
no one knows what it's like 
to feel these feelings
like i do, and i blame you!
no one bites back as hard 
on their anger
none of my pain and woe
can show through
 
CHORUS

discover l.i.m.p. say it (x4)

 
no one knows what its like
to be mistreated, to be defeated
behind ble eyes
no one knows how to say
that they're sorry and don't worry
i'm not telling lies

chorus

no one knows what is like
to be a bad man, to be the sad man
behind blue eyes.
Tap to rate this tab
# A B C D E F G H I J K L M N O P Q R S T U V W X Y Z