Guitaretab - guitar tabs
Song name
# A B C D E F G H I J K L M N O P Q R S T U V W X Y Z

Limp Bizkit - Relentless tab

Band: Limp Bizkit
Song: Relentless

B F# B E G# C#

Transcribed by: Jamie Williams (lpweb@shaw.ca)


Riff A
|-----------------------------------------------------------------------------|
|-----------------------------------------------------------------------------|
|-----------------------------------------------------------------------------|
|-----------------------------------------------------------------------------|
|-7-0-7-0-8-7-0-7-0-7-0-7-8-7-0-----------------------------------------------|
|-----------------------------------------------------------------------------|
[ Tab from: http://www.guitaretab.com/l/limp-bizkit/33786.html ]
Riff B
|-----------------------------------------------------------------------------|
|-----------------------------------------------------------------------------|
|-----------------------------------------------------------------------------|
|-7-0-7-0-8-7-0-7-0-7-0-7-8-7-0-----------------------------------------------|
|-7-0-7-0-8-7-0-7-0-7-0-7-8-7-0-----------------------------------------------|
|-7-0-7-0-8-7-0-7-0-7-0-7-8-7-0-----------------------------------------------|

Riff C
|-----------------------------------------------------------------------------|
|-----------------------------------------------------------------------------|
|-----------------------------------------------------------------------------|
|-2-0-2-0-3-2-0-2-0-2-0-2-3-2-0-----------------------------------------------|
|-2-0-2-0-3-2-0-2-0-2-0-2-3-2-0-----------------------------------------------|
|-2-0-2-0-3-2-0-2-0-2-0-2-3-2-0-----------------------------------------------|

Riff D (over top of riff c)
|-----------------------------------------------------------------------------|
|-----------------------------------------------------------------------------|
|-13-13-13-13/9-9-9/7-7-7-7/4-4-4-4/7\4-4-4-4-4-4-4-4-4-4-4-4-----------------|
|--x--x--x--x-x-x-x-x-x-x-x-x-x-x-x-x-x-x-x-x-x-x-x-x-x-x-x-x-----------------|
|-11-11-11-11/7-7-7/5-5-5-5/2-2-2-2/5\2-2-2-2-2-2-2-2-2-2-2-2-----------------|
|-----------------------------------------------------------------------------|

visit my lostprophets fansite @ http://lpweb.alternatemusic.com/
Related for Relentless tab
Advertisement will be closed in 10 seconds