Guitaretab - guitar tabs
Song name
# A B C D E F G H I J K L M N O P Q R S T U V W X Y Z

Limp Bizkit - Story tab

So thats my first tab, i hope everything fits...

chorus
E|---------------------|
B|---------------------|
G|---------------------|
D|-2-3-4-5-5-5-5-5-----|
A|-2-3-4-5-5-5-5-5-----|
E|-0-1-2-3-3-3-3-3-----|


refrain ("it's the..")
E|---------------------------------------|
B|---------------------------------------|
G|---------------------------------------|
D|--------------------3-2---------2------| repeat 3x then...
A|-x--x-x-x-x-7\\\\1-------5--5-5--------|
E|-x--x-x-x-x----------------------------|

...
E|---------------------------------------|
B|---------------------------------------|
G|---------------------------------------|
D|-1-1-1-1-1-1-1-1-----------------------|
A|---------------------------------------|
E|-----------------3-3-3-3-3-3-3-3-------|


bridge 1 ("just livin...")
E|-----------------------------|
B|-----------------------------|
G|-----------------------------|
D|--2--------------------------| followed by chorus
A|-----------0-----------------|
E|----0--0-0---3--3--2-0-2-----|

[ Tab from: http://www.guitaretab.com/l/limp-bizkit/59464.html ]
bridge 2 (near the end, last minute of the song)
E|----------------------------|
B|----------------------------|
G|----------------------------|
D|--2-------------------0-----|
A|----------------------------|
E|----0-0-0-1-1-1-2-2-2---0---|


refrain modified 
(he plays it after 1x refrain at the end 
followed by 2x refrains again(which is also the finishing part of the song))
E|---------------------------------------|
B|---------------------------------------|
G|---------------------------------------|
D|--------------------8-7-------------7--| repeat 3x then...
A|-x--x-x-x-x-7\\\\1-------10--10-10-----|
E|-x--x-x-x-x----------------------------|

...
E|---------------------------------------|
B|---------------------------------------|
G|---------------------------------------|
D|-1-1-1-1-1-1-1-1-----------------------|
A|---------------------------------------|
E|-----------------3-3-3-3-3-3-3-3-------|


at the end theres a sirene, i guess; it starts at chorus:
E|--10...let ring....11.10....-| 
B|-----------------------------|
G|-----------------------------|

have fun :)
Related for Story tab
Advertisement will be closed in 10 seconds