Song name
# A B C D E F G H I J K L M N O P Q R S T U V W X Y Z

Lincoln Brewster - This Love tab

This Love  Lincoln Brewster (tabs)

Hi, 1st of all, I want to thank God for giving me the patience to make this tab. Its
literally a pain in the neck if you get irritated quickly. Anyway, I tabbed this because I
needed to play this at church. I play it by ear so it may not completely be how Mr. 
Brewster plays it but Ive put on a lot of effort with my ears to somehow perfect it, so
enjoy and God be with you always! 

(The tuning is standard, so don'tcha worry)

Intro: repeat 2x
e|-------------------------------------------------------|
B|----14(5x)--14h15p14-\-12--12-(5x)---12h14p12-\-10----|
G|----14-----14---------\-13--13-----13----------\-11----|
D|-------------------------------------------------------|
A|-------------------------------------------------------|
E|-------------------------------------------------------|

e|---------------------------------------------------------|
B|--10-(5x)----10h12p10-\-7--7-(3x)--9-9-10g-10------------|
G|--11------11----------\-7--7-------7-7-7g--7-------------|
D|---------------------------------------------------------|
A|---------------------------------------------------------|
E|---------------------------------------------------------|

Verse 1:
e|---------------------------------------------------------|
B|---14----12----10----7-----------------------------------|
G|---14----13----11----7----6h7p6h7p6\---------------------|
D|--------------------------7------------------------------|
A|---------------------------------------------------------|
E|---------------------------------------------------------|

e|-------------------------------------------------------|
B|---14----12----/14--10---------7-----------------------|
G|---14----13---------11----/11--7-----6h7p6h7p6\--------|
D|-------------------------------------7-----------------|
A|-------------------------------------------------------|
E|-------------------------------------------------------|

Pre-chorus: repeat 2x
e|---------------------------------------------------------|
B|-----------14----------14--------------------------------|
G|-----14-16----14----14---------14-13-14-16-14-13-14-16---|
D|-14--------------14---------14---------------------------|
A|---------------------------------------------------------|
E|---------------------------------------------------------|

I strum when it comes to the chorus. There is a lead guitar picking in it but its way
too complicated. Mr. Brewster does know how to copyright his songs, if you know what I
mean. 

Repeat intro then proceed to
Verse 2:
e|-------------------------------------------------------|
B|--14--12--10---/12-14--7-------------------------------|
G|--14--13--11-----------7---7---------------------------|
D|---------------------------6h7p6h7p6-------------------|
A|-------------------------------------------------------|
E|-------------------------------------------------------|

e|------------------------------------------------------------|
B|--14--12-/14-10---/12-14------17~--14-----------------------|
G|--14--13-----11-----------------------16-14-----------------|
D|--------------------------------------------16-14-----------|
A|--------------------------------------------------16-14~\---|
E|------------------------------------------------------------|


The Pre-chorus and Chorus are pretty much untouched, so that makes you advance to the
solo at 1:58!  (Never mind the smiley, Im just a happy panda.)


1:58 Solo!
e|----------------------------------------------------------------|
B|--17~\---------------14h15p14-----------------------------------|
G|-------16~p14h16/18--14-----------------------------------16\---|
D|--------------------------------14------------------------14\---|
A|-----------------------------------12h14h16p1412h14-14---------|
E|----------------------------------------------------------------|

e|----------------------------------------------------------------|
B|----------------------------------------------------------------|
G|--16h18-16\14h16p14h16------------------------------------------|
D|------------------------14/16~----------------------------------|
A|-------------------------------12h14h16p14p12-------------------|
E|----------------------------------------------14~\--------------|

e|--1717~-17p14-----------19-17----------17-----------------------|
B|-------------17p14-------------17h18h19--19---------------------|
G|------------------16--------------------------------------------|
D|----------------------------------------------------------------|
A|----------------------------------------------------------------|
E|----------------------------------------------------------------|

e|--1616~---------------------------------------------------17m\---|
B|--1717~---------------------------------------------------17m\---|
G|---------16-14-14-14----14-14-14--14----------------------17m\---|
D|---------14-14-16-14----14-14-14--14-14-14----------------17m\---|
A|---------------------16--------------14-14p12--/16/16\-----------|
E|-----------------------------------------------/17/17\-----------|


Background solo at 3:40

e|--19/21-22-21-1717----1717~----17p16~--1617---------------------|
B|--------------------------17g---------------1719~1717-----------|
G|----------------------------------------------------------------|
D|----------------------------------------------------------------|
A|----------------------------------------------------------------|
E|----------------------------------------------------------------|

e|-----------20b-1717~--19b19-17h1919-19p17-----------------------|
B|--17h19-17-------------------------------19p17----------19~-----|
G|----------------------------------------------18p16-------------|
D|----------------------------------------------------------------|
A|----------------------------------------------------------------|
E|----------------------------------------------------------------|

e|--14h17--14-----------------------------------------------------|
B|-------1714h17--14---------------------------------------------|
G|---------------1614h16--14-------------------------------------|
D|-----------------------1614h16--14-----------------------------|
A|-------------------------------16-14b~1214b~-1212~------------|
E|-----------------------------------------14------12-------------|


Ill just end up here, the fading solo is pretty much unnecessary.
Thank you for using this tab for reference. God bless you guys and keep up the good work
on your guitar solo journey. I hope this helped even for a bit.

If you have any comments, suggestions, or any stuff youd like to collaborate on, email
me on Joshuacelis@gmail.com or message me on facebook using this address:
joshuacelis@gmail.com  or visit my band page by clicking on this link:

www.facebook.com/pages/Tower-Lights/310027349098305
Tap to rate this tab
# A B C D E F G H I J K L M N O P Q R S T U V W X Y Z