Song name
# A B C D E F G H I J K L M N O P Q R S T U V W X Y Z

Lindsey Buckingham - Countdown tab

----------------------------------------------------------------------------
			   Countdown- Lindsey Buckingham                   
-----------------------------------------------------------------------------
Tabbed by: Josh Clapper
Email:

Tuning: Normal

Intro: x2

e|-10-10-10-10-9-9-7-7-5-5---5--10-10-10-10-9-9-7-7-5-5--------------------|
B|-------------------------7----------------------------5-3-5--------------|
G|-------------------------------------------------------------------------|
D|-------------------------------------------------------------------------|
A|-------------------------------------------------------------------------|
E|-------------------------------------------------------------------------|


*Verse:

E                     A           D A E
Oh I'm waitin' on the countdown

E             A      D A E
Sittin in the shade

E               A            D A E
Things about to turn around

E               A       D A E
How the madness fades


*Chorus:

E                       A          D
Oh I been waitin on the countdown

D               A             E
Things about to turn around

E                       A              D
And now I'm out of the lost and found

D                  A          E
Just waitin on the countdown

Verses:

Right through your fingers
Time slips away
How the madness fades
Right here I'm gonna stay

Chorus:

Oh I benn waitin on the countdown (Ba ba ba)
Things about to turn around
And now I'm out of the lost and found (Ba ba ba)
Just waitin on the countdown

Intro x2

Verse:

So I'm sitting in the shade
Under the dreamin tree
Things about to turn around
Right here I'm gonna be

Chorus x2

Outro: 

e|-9-9-9-9-9-9-9-5-5-5-7-5--9-9-9-9-9-9-9-5-5-5-7-9-7--9-9-9-9-9-9-9-------|
B|-------------------------------------------------------------------------|
G|-------------------------------------------------------------------------|
D|-------------------------------------------------------------------------|
A|-------------------------------------------------------------------------|
E|-------------------------------------------------------------------------|

e|-9-9-10---9---10-9-5-5-5-7-9-7-5--(This next is too fast so i improvise)-|
B|-------------------------------------------------------------------------|
G|-------------------------------------------------------------------------|
D|-------------------------------------------------------------------------|
A|-------------------------------------------------------------------------|
E|-------------------------------------------------------------------------|

e|-3-5-3-5-3-5-3-5-2-5-2-5-2-5-2-5-3-5-3-5-3-5-3-5-2-5-2-5-2-5-2-5-7-7-7-7-|
B|-------------------------------------------------------------------------|
G|-------------------------------------------------------------------------|
D|-------------------------------------------------------------------------|
A|-------------------------------------------------------------------------|
E|-------------------------------------------------------------------------|

e|-9-9-9-9-14-14-14-14-14-14-14-14-14-14-12-12-12-12-12-12-10-10-10-9-10-9-|
B|-------------------------------------------------------------------------|
G|-------------------------------------------------------------------------|
D|-------------------------------------------------------------------------|
A|-------------------------------------------------------------------------|
E|-------------------------------------------------------------------------|

e|-5-2-5-7-9-7-5-5--3-5-3-5-3-5-3-5-2-5-2-5-2-5-2-(Fade Out)---------------|
B|-------------------------------------------------------------------------|
G|-------------------------------------------------------------------------|
D|-------------------------------------------------------------------------|
A|-------------------------------------------------------------------------|
E|-------------------------------------------------------------------------|
Tap to rate this tab
 
# A B C D E F G H I J K L M N O P Q R S T U V W X Y Z