Song name
# A B C D E F G H I J K L M N O P Q R S T U V W X Y Z

Link Wray - Jack The Ripper tab

Song: Jack The Ripper
Artist: Link Wray

Tabbed By; Kasey Seeman...go ahead and laugh but yes that is my real name

Tuning: Standard

 I'm pretty sure i got everything right...I'm only 13 but that souldn't matter ive 
about 5 or six other songs and this is my first one i have posted. I posted it cause its a 
song and there weren't any tabs on it...Enjoy!

 E--------------------------------------------------------------------|
 B--0-2-----0-2-------------------------------------------------------|
 G--0-2-----0-2-------------------------------------------------------|
 D--0-2-----0-2-------------------------------------------------------|
 A--------------------------------------------------------------------|
 E-------------------0-0-0-5-----0-0-0-5------------------------------|


 E--------------------------------------------------------------------|
 B---0--2-----0--2----------------------------------------------------|
 G---0--2-----0--2----------------------------------------------------|
 D---0--2-----0--2----------------------------------------------------|
 A--------------------------------------------------------------------|
 E--------------------------------------------------------------------|

 E---12-12-12-12/15-15-15-15/17-17-17-17/15-15-15-15/17-17-17-17/15-15-|
 B---------------------------------------------------------------------|
 G---------------------------------------------------------------------|
 D---------------------------------------------------------------------|
 A---------------------------------------------------------------------|
 E---------------------------------------------------------------------|

 E---15-15/12-12-12-12/10-10-10-10/12-12vv-----------------------------|
 B---------------------------------------------------------------------|
 G---------------------------------------------------------------------|
 D---------------------------------------------------------------------|
 A---------------------------------------------------------------------|
 E---------------------------------------------------------------------|

 E---10-10-10-10/9-9-9-7/9vv-------------------------------------------|
 B---------------------------------------------------------------------|
 G---------------------------------------------------------------------|
 D---------------------------------------------------------------------|
 A---------------------------------------------------------------------|
 E---------------------------------------------------------------------|

 E-------------------------------------------------------------------------|
 B-------------------------------------------------------------------------|
 G----------------------55-7-5----------55-7-5--------55-7-5---------------|
 D-----------------4-7--------------4-7-----------4-7----------------------|
 A--0-0-3-0-5-0-55---------------55------------55--------------------------|
 E-------------------------------------------------------------------------|

|-----------------------^-P.M.-^-----------------------------------------|


 E-----------------------------------------------------------------------|
 B-----------------------------------------------------------------------|
 G----------55-7-5-------------------------------------------------------|
 D------4-7---------------55-7-5--------55-7-5--------55-7-5-------------|
 A---55---------------4-7-----------4-7-----------4-7--------------------|
 E-----------------55-------------55-----------55------------------------|

|-----------------------^-P.M.-^-----------------------------------------|


 E---------------------------------------------------------------------|
 B------------------------------------------------------2--------------|
 G-------------------------77-9-7----------55-7-5-------2--------------|
 D--------55-7-5-------6-9-------------4-7--------------2--------------|
 A----4-7-----------77--------------55---------------------------------|
 E-55------------------------------------------------------------------|

|-----------------------^P.M.^-------------------------------------------|
Tap to rate this tab
 
# A B C D E F G H I J K L M N O P Q R S T U V W X Y Z